  0
SECTION
  2
HEADER
  9
$ACADVER
  1
AC1009
  9
$DWGCODEPAGE
  3
ansi_1252
  9
$INSBASE
 10
0.0
 20
0.0
 30
0.0
  9
$EXTMIN
 10
-1620.3037
 20
-827.8277
 30
0.0
  9
$EXTMAX
 10
522.1539
 20
1517.9394
 30
0.0
  9
$LIMMIN
 10
0.0
 20
0.0
  9
$LIMMAX
 10
12.0
 20
9.0
  9
$ORTHOMODE
 70
     0
  9
$REGENMODE
 70
     1
  9
$FILLMODE
 70
     1
  9
$QTEXTMODE
 70
     0
  9
$MIRRTEXT
 70
     1
  9
$DRAGMODE
 70
     2
  9
$LTSCALE
 40
1.0
  9
$OSMODE
 70
    37
  9
$ATTMODE
 70
     1
  9
$TEXTSIZE
 40
0.2
  9
$TRACEWID
 40
0.05
  9
$TEXTSTYLE
  7
STANDARD
  9
$CLAYER
  8
0
  9
$CELTYPE
  6
BYLAYER
  9
$CECOLOR
 62
   256
  9
$DIMSCALE
 40
1.0
  9
$DIMASZ
 40
0.18
  9
$DIMEXO
 40
0.0625
  9
$DIMDLI
 40
0.38
  9
$DIMRND
 40
0.0
  9
$DIMDLE
 40
0.0
  9
$DIMEXE
 40
0.18
  9
$DIMTP
 40
0.0
  9
$DIMTM
 40
0.0
  9
$DIMTXT
 40
0.18
  9
$DIMCEN
 40
0.09
  9
$DIMTSZ
 40
0.0
  9
$DIMTOL
 70
     0
  9
$DIMLIM
 70
     0
  9
$DIMTIH
 70
     1
  9
$DIMTOH
 70
     1
  9
$DIMSE1
 70
     0
  9
$DIMSE2
 70
     0
  9
$DIMTAD
 70
     0
  9
$DIMZIN
 70
     0
  9
$DIMBLK
  1

  9
$DIMASO
 70
     1
  9
$DIMSHO
 70
     1
  9
$DIMPOST
  1

  9
$DIMAPOST
  1

  9
$DIMALT
 70
     0
  9
$DIMALTD
 70
     2
  9
$DIMALTF
 40
25.4
  9
$DIMLFAC
 40
1.0
  9
$DIMTOFL
 70
     0
  9
$DIMTVP
 40
0.0
  9
$DIMTIX
 70
     0
  9
$DIMSOXD
 70
     0
  9
$DIMSAH
 70
     0
  9
$DIMBLK1
  1

  9
$DIMBLK2
  1

  9
$DIMSTYLE
  2
STANDARD
  9
$DIMCLRD
 70
     0
  9
$DIMCLRE
 70
     0
  9
$DIMCLRT
 70
     0
  9
$DIMTFAC
 40
1.0
  9
$DIMGAP
 40
0.09
  9
$LUNITS
 70
     2
  9
$LUPREC
 70
     4
  9
$SKETCHINC
 40
0.1
  9
$FILLETRAD
 40
0.5
  9
$AUNITS
 70
     0
  9
$AUPREC
 70
     0
  9
$MENU
  1
.
  9
$ELEVATION
 40
0.0
  9
$PELEVATION
 40
0.0
  9
$THICKNESS
 40
0.0
  9
$LIMCHECK
 70
     0
  9
$CHAMFERA
 40
0.0
  9
$CHAMFERB
 40
0.0
  9
$SKPOLY
 70
     0
  9
$TDCREATE
 40
2460090.036051667
  9
$TDUPDATE
 40
2460090.036051898
  9
$TDINDWG
 40
0.0000000116
  9
$TDUSRTIMER
 40
0.0000000116
  9
$USRTIMER
 70
     1
  9
$ANGBASE
 50
0.0
  9
$ANGDIR
 70
     0
  9
$PDMODE
 70
     0
  9
$PDSIZE
 40
0.0
  9
$PLINEWID
 40
0.0
  9
$COORDS
 70
     1
  9
$SPLFRAME
 70
     0
  9
$SPLINETYPE
 70
     6
  9
$SPLINESEGS
 70
     8
  9
$ATTDIA
 70
     0
  9
$ATTREQ
 70
     1
  9
$HANDLING
 70
     1
  9
$HANDSEED
  5
6EE
  9
$SURFTAB1
 70
     6
  9
$SURFTAB2
 70
     6
  9
$SURFTYPE
 70
     6
  9
$SURFU
 70
     6
  9
$SURFV
 70
     6
  9
$UCSNAME
  2

  9
$UCSORG
 10
0.0
 20
0.0
 30
0.0
  9
$UCSXDIR
 10
1.0
 20
0.0
 30
0.0
  9
$UCSYDIR
 10
0.0
 20
1.0
 30
0.0
  9
$PUCSNAME
  2

  9
$PUCSORG
 10
0.0
 20
0.0
 30
0.0
  9
$PUCSXDIR
 10
1.0
 20
0.0
 30
0.0
  9
$PUCSYDIR
 10
0.0
 20
1.0
 30
0.0
  9
$USERI1
 70
     0
  9
$USERI2
 70
     0
  9
$USERI3
 70
     0
  9
$USERI4
 70
     0
  9
$USERI5
 70
     0
  9
$USERR1
 40
0.0
  9
$USERR2
 40
0.0
  9
$USERR3
 40
0.0
  9
$USERR4
 40
0.0
  9
$USERR5
 40
0.0
  9
$WORLDVIEW
 70
     1
  9
$SHADEDGE
 70
     3
  9
$SHADEDIF
 70
    70
  9
$TILEMODE
 70
     1
  9
$MAXACTVP
 70
    64
  9
$PLIMCHECK
 70
     0
  9
$PEXTMIN
 10
1.000000000000000E+20
 20
1.000000000000000E+20
 30
1.000000000000000E+20
  9
$PEXTMAX
 10
-1.000000000000000E+20
 20
-1.000000000000000E+20
 30
-1.000000000000000E+20
  9
$PLIMMIN
 10
0.0
 20
0.0
  9
$PLIMMAX
 10
12.0
 20
9.0
  9
$UNITMODE
 70
     0
  9
$VISRETAIN
 70
     1
  9
$PLINEGEN
 70
     0
  9
$PSLTSCALE
 70
     1
  0
ENDSEC
  0
SECTION
  2
TABLES
  0
TABLE
  2
VPORT
 70
     1
  0
VPORT
  2
*ACTIVE
 70
     0
 10
0.0
 20
0.0
 11
1.0
 21
1.0
 12
10.42990654205607
 22
4.5
 13
0.0
 23
0.0
 14
0.5
 24
0.5
 15
0.5
 25
0.5
 16
0.0
 26
0.0
 36
1.0
 17
0.0
 27
0.0
 37
0.0
 40
9.0
 41
1.972972972850329
 42
50.0
 43
0.0
 44
0.0
 50
0.0
 51
0.0
 71
     0
 72
   100
 73
     1
 74
     3
 75
     0
 76
     0
 77
     0
 78
     0
  0
ENDTAB
  0
TABLE
  2
LTYPE
 70
     1
  0
LTYPE
  2
CONTINUOUS
 70
     0
  3
Solid line
 72
    65
 73
     0
 40
0.0
  0
ENDTAB
  0
TABLE
  2
LAYER
 70
     2
  0
LAYER
  2
0
 70
     0
 62
     7
  6
CONTINUOUS
  0
LAYER
  2
FINAL_PROJECT_CHASSIS_2_V1
 70
     0
 62
     7
  6
CONTINUOUS
  0
ENDTAB
  0
TABLE
  2
STYLE
 70
     1
  0
STYLE
  2
STANDARD
 70
     0
 40
0.0
 41
1.0
 50
0.0
 71
     0
 42
0.2
  3
txt
  4

  0
ENDTAB
  0
TABLE
  2
VIEW
 70
     0
  0
ENDTAB
  0
TABLE
  2
UCS
 70
     0
  0
ENDTAB
  0
TABLE
  2
APPID
 70
     2
  0
APPID
  2
ACAD
 70
     0
  0
APPID
  2
ODA
 70
     0
  0
ENDTAB
  0
TABLE
  2
DIMSTYLE
 70
     1
  0
DIMSTYLE
  2
STANDARD
 70
     0
  3

  4

  5

  6

  7

 40
1.0
 41
0.18
 42
0.0625
 43
0.38
 44
0.18
 45
0.0
 46
0.0
 47
0.0
 48
0.0
140
0.18
141
0.09
142
0.0
143
25.4
144
1.0
145
0.0
146
1.0
147
0.09
 71
     0
 72
     0
 73
     1
 74
     1
 75
     0
 76
     0
 77
     0
 78
     0
170
     0
171
     2
172
     0
173
     0
174
     0
175
     0
176
     0
177
     0
178
     0
  0
ENDTAB
  0
ENDSEC
  0
SECTION
  2
BLOCKS
  0
BLOCK
  8
0
  2
$MODEL_SPACE
 70
     0
 10
0.0
 20
0.0
 30
0.0
  3
$MODEL_SPACE
  1

  0
ENDBLK
  5
21
  8
0
  0
BLOCK
 67
     1
  8
0
  2
$PAPER_SPACE
 70
     0
 10
0.0
 20
0.0
 30
0.0
  3
$PAPER_SPACE
  1

  0
ENDBLK
  5
1D
 67
     1
  8
0
  0
ENDSEC
  0
SECTION
  2
ENTITIES
  0
POLYLINE
  5
70
  8
FINAL_PROJECT_CHASSIS_2_V1
 66
     1
 10
0.0
 20
0.0
 30
0.0
 70
     1
  0
VERTEX
  5
1AC
  8
FINAL_PROJECT_CHASSIS_2_V1
 10
-1620.0656
 20
1517.8013
 30
0.0
  0
VERTEX
  5
1AD
  8
FINAL_PROJECT_CHASSIS_2_V1
 10
-1620.1656
 20
1517.9013
 30
0.0
  0
VERTEX
  5
1AE
  8
FINAL_PROJECT_CHASSIS_2_V1
 10
-1620.2656
 20
1517.8013
 30
0.0
  0
VERTEX
  5
1AF
  8
FINAL_PROJECT_CHASSIS_2_V1
 10
-1620.1656
 20
1517.7013
 30
0.0
  0
VERTEX
  5
1B0
  8
FINAL_PROJECT_CHASSIS_2_V1
 10
-1620.0656
 20
1517.8013
 30
0.0
  0
SEQEND
  5
5B9
  8
FINAL_PROJECT_CHASSIS_2_V1
  0
POLYLINE
  5
71
  8
FINAL_PROJECT_CHASSIS_2_V1
 66
     1
 10
0.0
 20
0.0
 30
0.0
 70
     1
  0
VERTEX
  5
1B1
  8
FINAL_PROJECT_CHASSIS_2_V1
 10
57.8924
 20
-177.6896
 30
0.0
  0
VERTEX
  5
1B2
  8
FINAL_PROJECT_CHASSIS_2_V1
 10
57.7924
 20
-177.5896
 30
0.0
  0
VERTEX
  5
1B3
  8
FINAL_PROJECT_CHASSIS_2_V1
 10
57.6924
 20
-177.6896
 30
0.0
  0
VERTEX
  5
1B4
  8
FINAL_PROJECT_CHASSIS_2_V1
 10
57.7924
 20
-177.7896
 30
0.0
  0
VERTEX
  5
1B5
  8
FINAL_PROJECT_CHASSIS_2_V1
 10
57.8924
 20
-177.6896
 30
0.0
  0
SEQEND
  5
5BA
  8
FINAL_PROJECT_CHASSIS_2_V1
  0
POLYLINE
  5
72
  8
FINAL_PROJECT_CHASSIS_2_V1
 66
     1
 10
0.0
 20
0.0
 30
0.0
 70
     1
  0
VERTEX
  5
1B6
  8
FINAL_PROJECT_CHASSIS_2_V1
 10
-32.9908
 20
407.317
 30
0.0
  0
VERTEX
  5
1B7
  8
FINAL_PROJECT_CHASSIS_2_V1
 10
-33.0908
 20
407.417
 30
0.0
  0
VERTEX
  5
1B8
  8
FINAL_PROJECT_CHASSIS_2_V1
 10
-33.1908
 20
407.317
 30
0.0
  0
VERTEX
  5
1B9
  8
FINAL_PROJECT_CHASSIS_2_V1
 10
-33.0908
 20
407.217
 30
0.0
  0
VERTEX
  5
1BA
  8
FINAL_PROJECT_CHASSIS_2_V1
 10
-32.9908
 20
407.317
 30
0.0
  0
SEQEND
  5
5BB
  8
FINAL_PROJECT_CHASSIS_2_V1
  0
POLYLINE
  5
73
  8
FINAL_PROJECT_CHASSIS_2_V1
 66
     1
 10
0.0
 20
0.0
 30
0.0
 70
     1
  0
VERTEX
  5
1BB
  8
FINAL_PROJECT_CHASSIS_2_V1
 10
507.8924
 20
-177.6896
 30
0.0
  0
VERTEX
  5
1BC
  8
FINAL_PROJECT_CHASSIS_2_V1
 10
507.7924
 20
-177.5896
 30
0.0
  0
VERTEX
  5
1BD
  8
FINAL_PROJECT_CHASSIS_2_V1
 10
507.6924
 20
-177.6896
 30
0.0
  0
VERTEX
  5
1BE
  8
FINAL_PROJECT_CHASSIS_2_V1
 10
507.7924
 20
-177.7896
 30
0.0
  0
VERTEX
  5
1BF
  8
FINAL_PROJECT_CHASSIS_2_V1
 10
507.8924
 20
-177.6896
 30
0.0
  0
SEQEND
  5
5BC
  8
FINAL_PROJECT_CHASSIS_2_V1
  0
POLYLINE
  5
74
  8
FINAL_PROJECT_CHASSIS_2_V1
 66
     1
 10
0.0
 20
0.0
 30
0.0
 70
     1
  0
VERTEX
  5
1C0
  8
FINAL_PROJECT_CHASSIS_2_V1
 10
-482.9908
 20
407.317
 30
0.0
  0
VERTEX
  5
1C1
  8
FINAL_PROJECT_CHASSIS_2_V1
 10
-483.0908
 20
407.417
 30
0.0
  0
VERTEX
  5
1C2
  8
FINAL_PROJECT_CHASSIS_2_V1
 10
-483.1908
 20
407.317
 30
0.0
  0
VERTEX
  5
1C3
  8
FINAL_PROJECT_CHASSIS_2_V1
 10
-483.0908
 20
407.217
 30
0.0
  0
VERTEX
  5
1C4
  8
FINAL_PROJECT_CHASSIS_2_V1
 10
-482.9908
 20
407.317
 30
0.0
  0
SEQEND
  5
5BD
  8
FINAL_PROJECT_CHASSIS_2_V1
  0
POLYLINE
  5
75
  8
FINAL_PROJECT_CHASSIS_2_V1
 66
     1
 10
0.0
 20
0.0
 30
0.0
 70
     1
  0
VERTEX
  5
1C5
  8
FINAL_PROJECT_CHASSIS_2_V1
 10
-53.0446
 20
-637.6174
 30
0.0
  0
VERTEX
  5
1C6
  8
FINAL_PROJECT_CHASSIS_2_V1
 10
-53.1446
 20
-637.5174
 30
0.0
  0
VERTEX
  5
1C7
  8
FINAL_PROJECT_CHASSIS_2_V1
 10
-53.2446
 20
-637.6174
 30
0.0
  0
VERTEX
  5
1C8
  8
FINAL_PROJECT_CHASSIS_2_V1
 10
-53.1446
 20
-637.7174
 30
0.0
  0
VERTEX
  5
1C9
  8
FINAL_PROJECT_CHASSIS_2_V1
 10
-53.0446
 20
-637.6174
 30
0.0
  0
SEQEND
  5
5BE
  8
FINAL_PROJECT_CHASSIS_2_V1
  0
POLYLINE
  5
76
  8
FINAL_PROJECT_CHASSIS_2_V1
 66
     1
 10
0.0
 20
0.0
 30
0.0
 70
     1
  0
VERTEX
  5
1CA
  8
FINAL_PROJECT_CHASSIS_2_V1
 10
-53.0446
 20
-187.6174
 30
0.0
  0
VERTEX
  5
1CB
  8
FINAL_PROJECT_CHASSIS_2_V1
 10
-53.1446
 20
-187.5174
 30
0.0
  0
VERTEX
  5
1CC
  8
FINAL_PROJECT_CHASSIS_2_V1
 10
-53.2446
 20
-187.6174
 30
0.0
  0
VERTEX
  5
1CD
  8
FINAL_PROJECT_CHASSIS_2_V1
 10
-53.1446
 20
-187.7174
 30
0.0
  0
VERTEX
  5
1CE
  8
FINAL_PROJECT_CHASSIS_2_V1
 10
-53.0446
 20
-187.6174
 30
0.0
  0
SEQEND
  5
5BF
  8
FINAL_PROJECT_CHASSIS_2_V1
  0
POLYLINE
  5
77
  8
FINAL_PROJECT_CHASSIS_2_V1
 66
     1
 10
0.0
 20
0.0
 30
0.0
 70
     1
  0
VERTEX
  5
1CF
  8
FINAL_PROJECT_CHASSIS_2_V1
 10
-503.0446
 20
-187.6174
 30
0.0
  0
VERTEX
  5
1D0
  8
FINAL_PROJECT_CHASSIS_2_V1
 10
-503.1446
 20
-187.5174
 30
0.0
  0
VERTEX
  5
1D1
  8
FINAL_PROJECT_CHASSIS_2_V1
 10
-503.2446
 20
-187.6174
 30
0.0
  0
VERTEX
  5
1D2
  8
FINAL_PROJECT_CHASSIS_2_V1
 10
-503.1446
 20
-187.7174
 30
0.0
  0
VERTEX
  5
1D3
  8
FINAL_PROJECT_CHASSIS_2_V1
 10
-503.0446
 20
-187.6174
 30
0.0
  0
SEQEND
  5
5C0
  8
FINAL_PROJECT_CHASSIS_2_V1
  0
POLYLINE
  5
78
  8
FINAL_PROJECT_CHASSIS_2_V1
 66
     1
 10
0.0
 20
0.0
 30
0.0
 70
     1
  0
VERTEX
  5
1D4
  8
FINAL_PROJECT_CHASSIS_2_V1
 10
57.8924
 20
-177.6896
 30
0.0
  0
VERTEX
  5
1D5
  8
FINAL_PROJECT_CHASSIS_2_V1
 10
57.7924
 20
-177.5896
 30
0.0
  0
VERTEX
  5
1D6
  8
FINAL_PROJECT_CHASSIS_2_V1
 10
57.6924
 20
-177.6896
 30
0.0
  0
VERTEX
  5
1D7
  8
FINAL_PROJECT_CHASSIS_2_V1
 10
57.7924
 20
-177.7896
 30
0.0
  0
VERTEX
  5
1D8
  8
FINAL_PROJECT_CHASSIS_2_V1
 10
57.8924
 20
-177.6896
 30
0.0
  0
SEQEND
  5
5C1
  8
FINAL_PROJECT_CHASSIS_2_V1
  0
POLYLINE
  5
79
  8
FINAL_PROJECT_CHASSIS_2_V1
 66
     1
 10
0.0
 20
0.0
 30
0.0
 70
     1
  0
VERTEX
  5
1D9
  8
FINAL_PROJECT_CHASSIS_2_V1
 10
507.8924
 20
-177.6896
 30
0.0
  0
VERTEX
  5
1DA
  8
FINAL_PROJECT_CHASSIS_2_V1
 10
507.7924
 20
-177.5896
 30
0.0
  0
VERTEX
  5
1DB
  8
FINAL_PROJECT_CHASSIS_2_V1
 10
507.6924
 20
-177.6896
 30
0.0
  0
VERTEX
  5
1DC
  8
FINAL_PROJECT_CHASSIS_2_V1
 10
507.7924
 20
-177.7896
 30
0.0
  0
VERTEX
  5
1DD
  8
FINAL_PROJECT_CHASSIS_2_V1
 10
507.8924
 20
-177.6896
 30
0.0
  0
SEQEND
  5
5C2
  8
FINAL_PROJECT_CHASSIS_2_V1
  0
POLYLINE
  5
7A
  8
FINAL_PROJECT_CHASSIS_2_V1
 66
     1
 10
0.0
 20
0.0
 30
0.0
 70
     1
  0
VERTEX
  5
1DE
  8
FINAL_PROJECT_CHASSIS_2_V1
 10
440.9224
 20
-198.0826
 30
0.0
  0
VERTEX
  5
1DF
  8
FINAL_PROJECT_CHASSIS_2_V1
 10
440.8224
 20
-197.9826
 30
0.0
  0
VERTEX
  5
1E0
  8
FINAL_PROJECT_CHASSIS_2_V1
 10
440.7224
 20
-198.0826
 30
0.0
  0
VERTEX
  5
1E1
  8
FINAL_PROJECT_CHASSIS_2_V1
 10
440.8224
 20
-198.1826
 30
0.0
  0
VERTEX
  5
1E2
  8
FINAL_PROJECT_CHASSIS_2_V1
 10
440.9224
 20
-198.0826
 30
0.0
  0
SEQEND
  5
5C3
  8
FINAL_PROJECT_CHASSIS_2_V1
  0
POLYLINE
  5
7B
  8
FINAL_PROJECT_CHASSIS_2_V1
 66
     1
 10
0.0
 20
0.0
 30
0.0
 70
     1
  0
VERTEX
  5
1E3
  8
FINAL_PROJECT_CHASSIS_2_V1
 10
57.8924
 20
-177.6896
 30
0.0
  0
VERTEX
  5
1E4
  8
FINAL_PROJECT_CHASSIS_2_V1
 10
57.7924
 20
-177.5896
 30
0.0
  0
VERTEX
  5
1E5
  8
FINAL_PROJECT_CHASSIS_2_V1
 10
57.6924
 20
-177.6896
 30
0.0
  0
VERTEX
  5
1E6
  8
FINAL_PROJECT_CHASSIS_2_V1
 10
57.7924
 20
-177.7896
 30
0.0
  0
VERTEX
  5
1E7
  8
FINAL_PROJECT_CHASSIS_2_V1
 10
57.8924
 20
-177.6896
 30
0.0
  0
SEQEND
  5
5C4
  8
FINAL_PROJECT_CHASSIS_2_V1
  0
POLYLINE
  5
7C
  8
FINAL_PROJECT_CHASSIS_2_V1
 66
     1
 10
0.0
 20
0.0
 30
0.0
 70
     1
  0
VERTEX
  5
1E8
  8
FINAL_PROJECT_CHASSIS_2_V1
 10
57.8924
 20
-177.6896
 30
0.0
  0
VERTEX
  5
1E9
  8
FINAL_PROJECT_CHASSIS_2_V1
 10
57.7924
 20
-177.5896
 30
0.0
  0
VERTEX
  5
1EA
  8
FINAL_PROJECT_CHASSIS_2_V1
 10
57.6924
 20
-177.6896
 30
0.0
  0
VERTEX
  5
1EB
  8
FINAL_PROJECT_CHASSIS_2_V1
 10
57.7924
 20
-177.7896
 30
0.0
  0
VERTEX
  5
1EC
  8
FINAL_PROJECT_CHASSIS_2_V1
 10
57.8924
 20
-177.6896
 30
0.0
  0
SEQEND
  5
5C5
  8
FINAL_PROJECT_CHASSIS_2_V1
  0
POLYLINE
  5
7D
  8
FINAL_PROJECT_CHASSIS_2_V1
 66
     1
 10
0.0
 20
0.0
 30
0.0
 70
     1
  0
VERTEX
  5
1ED
  8
FINAL_PROJECT_CHASSIS_2_V1
 10
440.9224
 20
-198.0826
 30
0.0
  0
VERTEX
  5
1EE
  8
FINAL_PROJECT_CHASSIS_2_V1
 10
440.8224
 20
-197.9826
 30
0.0
  0
VERTEX
  5
1EF
  8
FINAL_PROJECT_CHASSIS_2_V1
 10
440.7224
 20
-198.0826
 30
0.0
  0
VERTEX
  5
1F0
  8
FINAL_PROJECT_CHASSIS_2_V1
 10
440.8224
 20
-198.1826
 30
0.0
  0
VERTEX
  5
1F1
  8
FINAL_PROJECT_CHASSIS_2_V1
 10
440.9224
 20
-198.0826
 30
0.0
  0
SEQEND
  5
5C6
  8
FINAL_PROJECT_CHASSIS_2_V1
  0
POLYLINE
  5
7E
  8
FINAL_PROJECT_CHASSIS_2_V1
 66
     1
 10
0.0
 20
0.0
 30
0.0
 70
     1
  0
VERTEX
  5
1F2
  8
FINAL_PROJECT_CHASSIS_2_V1
 10
510.5803
 20
402.6206
 30
0.0
  0
VERTEX
  5
1F3
  8
FINAL_PROJECT_CHASSIS_2_V1
 10
510.4803
 20
402.7206
 30
0.0
  0
VERTEX
  5
1F4
  8
FINAL_PROJECT_CHASSIS_2_V1
 10
510.3803
 20
402.6206
 30
0.0
  0
VERTEX
  5
1F5
  8
FINAL_PROJECT_CHASSIS_2_V1
 10
510.4803
 20
402.5206
 30
0.0
  0
VERTEX
  5
1F6
  8
FINAL_PROJECT_CHASSIS_2_V1
 10
510.5803
 20
402.6206
 30
0.0
  0
SEQEND
  5
5C7
  8
FINAL_PROJECT_CHASSIS_2_V1
  0
POLYLINE
  5
7F
  8
FINAL_PROJECT_CHASSIS_2_V1
 66
     1
 10
0.0
 20
0.0
 30
0.0
 70
     1
  0
VERTEX
  5
1F7
  8
FINAL_PROJECT_CHASSIS_2_V1
 10
57.8924
 20
-827.6896
 30
0.0
  0
VERTEX
  5
1F8
  8
FINAL_PROJECT_CHASSIS_2_V1
 10
57.7924
 20
-827.5896
 30
0.0
  0
VERTEX
  5
1F9
  8
FINAL_PROJECT_CHASSIS_2_V1
 10
57.6924
 20
-827.6896
 30
0.0
  0
VERTEX
  5
1FA
  8
FINAL_PROJECT_CHASSIS_2_V1
 10
57.7924
 20
-827.7896
 30
0.0
  0
VERTEX
  5
1FB
  8
FINAL_PROJECT_CHASSIS_2_V1
 10
57.8924
 20
-827.6896
 30
0.0
  0
SEQEND
  5
5C8
  8
FINAL_PROJECT_CHASSIS_2_V1
  0
POLYLINE
  5
80
  8
FINAL_PROJECT_CHASSIS_2_V1
 66
     1
 10
0.0
 20
0.0
 30
0.0
 70
     1
  0
VERTEX
  5
1FC
  8
FINAL_PROJECT_CHASSIS_2_V1
 10
60.5803
 20
402.6206
 30
0.0
  0
VERTEX
  5
1FD
  8
FINAL_PROJECT_CHASSIS_2_V1
 10
60.4803
 20
402.7206
 30
0.0
  0
VERTEX
  5
1FE
  8
FINAL_PROJECT_CHASSIS_2_V1
 10
60.3803
 20
402.6206
 30
0.0
  0
VERTEX
  5
1FF
  8
FINAL_PROJECT_CHASSIS_2_V1
 10
60.4803
 20
402.5206
 30
0.0
  0
VERTEX
  5
200
  8
FINAL_PROJECT_CHASSIS_2_V1
 10
60.5803
 20
402.6206
 30
0.0
  0
SEQEND
  5
5C9
  8
FINAL_PROJECT_CHASSIS_2_V1
  0
POLYLINE
  5
81
  8
FINAL_PROJECT_CHASSIS_2_V1
 66
     1
 10
0.0
 20
0.0
 30
0.0
 70
     1
  0
VERTEX
  5
201
  8
FINAL_PROJECT_CHASSIS_2_V1
 10
507.8924
 20
-177.6896
 30
0.0
  0
VERTEX
  5
202
  8
FINAL_PROJECT_CHASSIS_2_V1
 10
507.7924
 20
-177.5896
 30
0.0
  0
VERTEX
  5
203
  8
FINAL_PROJECT_CHASSIS_2_V1
 10
507.6924
 20
-177.6896
 30
0.0
  0
VERTEX
  5
204
  8
FINAL_PROJECT_CHASSIS_2_V1
 10
507.7924
 20
-177.7896
 30
0.0
  0
VERTEX
  5
205
  8
FINAL_PROJECT_CHASSIS_2_V1
 10
507.8924
 20
-177.6896
 30
0.0
  0
SEQEND
  5
5CA
  8
FINAL_PROJECT_CHASSIS_2_V1
  0
POLYLINE
  5
82
  8
FINAL_PROJECT_CHASSIS_2_V1
 66
     1
 10
0.0
 20
0.0
 30
0.0
 70
     1
  0
VERTEX
  5
206
  8
FINAL_PROJECT_CHASSIS_2_V1
 10
-503.0446
 20
-187.6174
 30
0.0
  0
VERTEX
  5
207
  8
FINAL_PROJECT_CHASSIS_2_V1
 10
-503.1446
 20
-187.5174
 30
0.0
  0
VERTEX
  5
208
  8
FINAL_PROJECT_CHASSIS_2_V1
 10
-503.2446
 20
-187.6174
 30
0.0
  0
VERTEX
  5
209
  8
FINAL_PROJECT_CHASSIS_2_V1
 10
-503.1446
 20
-187.7174
 30
0.0
  0
VERTEX
  5
20A
  8
FINAL_PROJECT_CHASSIS_2_V1
 10
-503.0446
 20
-187.6174
 30
0.0
  0
SEQEND
  5
5CB
  8
FINAL_PROJECT_CHASSIS_2_V1
  0
POLYLINE
  5
83
  8
FINAL_PROJECT_CHASSIS_2_V1
 66
     1
 10
0.0
 20
0.0
 30
0.0
 70
     1
  0
VERTEX
  5
20B
  8
FINAL_PROJECT_CHASSIS_2_V1
 10
-53.0446
 20
-637.6174
 30
0.0
  0
VERTEX
  5
20C
  8
FINAL_PROJECT_CHASSIS_2_V1
 10
-53.1446
 20
-637.5174
 30
0.0
  0
VERTEX
  5
20D
  8
FINAL_PROJECT_CHASSIS_2_V1
 10
-53.2446
 20
-637.6174
 30
0.0
  0
VERTEX
  5
20E
  8
FINAL_PROJECT_CHASSIS_2_V1
 10
-53.1446
 20
-637.7174
 30
0.0
  0
VERTEX
  5
20F
  8
FINAL_PROJECT_CHASSIS_2_V1
 10
-53.0446
 20
-637.6174
 30
0.0
  0
SEQEND
  5
5CC
  8
FINAL_PROJECT_CHASSIS_2_V1
  0
POLYLINE
  5
84
  8
FINAL_PROJECT_CHASSIS_2_V1
 66
     1
 10
0.0
 20
0.0
 30
0.0
 70
     1
  0
VERTEX
  5
210
  8
FINAL_PROJECT_CHASSIS_2_V1
 10
-503.0446
 20
-187.6174
 30
0.0
  0
VERTEX
  5
211
  8
FINAL_PROJECT_CHASSIS_2_V1
 10
-503.1446
 20
-187.5174
 30
0.0
  0
VERTEX
  5
212
  8
FINAL_PROJECT_CHASSIS_2_V1
 10
-503.2446
 20
-187.6174
 30
0.0
  0
VERTEX
  5
213
  8
FINAL_PROJECT_CHASSIS_2_V1
 10
-503.1446
 20
-187.7174
 30
0.0
  0
VERTEX
  5
214
  8
FINAL_PROJECT_CHASSIS_2_V1
 10
-503.0446
 20
-187.6174
 30
0.0
  0
SEQEND
  5
5CD
  8
FINAL_PROJECT_CHASSIS_2_V1
  0
POLYLINE
  5
85
  8
FINAL_PROJECT_CHASSIS_2_V1
 66
     1
 10
0.0
 20
0.0
 30
0.0
 70
     1
  0
VERTEX
  5
215
  8
FINAL_PROJECT_CHASSIS_2_V1
 10
-53.0446
 20
-637.6174
 30
0.0
  0
VERTEX
  5
216
  8
FINAL_PROJECT_CHASSIS_2_V1
 10
-53.1446
 20
-637.5174
 30
0.0
  0
VERTEX
  5
217
  8
FINAL_PROJECT_CHASSIS_2_V1
 10
-53.2446
 20
-637.6174
 30
0.0
  0
VERTEX
  5
218
  8
FINAL_PROJECT_CHASSIS_2_V1
 10
-53.1446
 20
-637.7174
 30
0.0
  0
VERTEX
  5
219
  8
FINAL_PROJECT_CHASSIS_2_V1
 10
-53.0446
 20
-637.6174
 30
0.0
  0
SEQEND
  5
5CE
  8
FINAL_PROJECT_CHASSIS_2_V1
  0
POLYLINE
  5
86
  8
FINAL_PROJECT_CHASSIS_2_V1
 66
     1
 10
0.0
 20
0.0
 30
0.0
 70
     1
  0
VERTEX
  5
21A
  8
FINAL_PROJECT_CHASSIS_2_V1
 10
522.1158
 20
1020.6345
 30
0.0
  0
VERTEX
  5
21B
  8
FINAL_PROJECT_CHASSIS_2_V1
 10
522.0158
 20
1020.7345
 30
0.0
  0
VERTEX
  5
21C
  8
FINAL_PROJECT_CHASSIS_2_V1
 10
521.9158
 20
1020.6345
 30
0.0
  0
VERTEX
  5
21D
  8
FINAL_PROJECT_CHASSIS_2_V1
 10
522.0158
 20
1020.5345
 30
0.0
  0
VERTEX
  5
21E
  8
FINAL_PROJECT_CHASSIS_2_V1
 10
522.1158
 20
1020.6345
 30
0.0
  0
SEQEND
  5
5CF
  8
FINAL_PROJECT_CHASSIS_2_V1
  0
POLYLINE
  5
87
  8
FINAL_PROJECT_CHASSIS_2_V1
 66
     1
 10
0.0
 20
0.0
 30
0.0
 70
     1
  0
VERTEX
  5
21F
  8
FINAL_PROJECT_CHASSIS_2_V1
 10
72.1158
 20
1020.6345
 30
0.0
  0
VERTEX
  5
220
  8
FINAL_PROJECT_CHASSIS_2_V1
 10
72.0158
 20
1020.7345
 30
0.0
  0
VERTEX
  5
221
  8
FINAL_PROJECT_CHASSIS_2_V1
 10
71.9158
 20
1020.6345
 30
0.0
  0
VERTEX
  5
222
  8
FINAL_PROJECT_CHASSIS_2_V1
 10
72.0158
 20
1020.5345
 30
0.0
  0
VERTEX
  5
223
  8
FINAL_PROJECT_CHASSIS_2_V1
 10
72.1158
 20
1020.6345
 30
0.0
  0
SEQEND
  5
5D0
  8
FINAL_PROJECT_CHASSIS_2_V1
  0
POLYLINE
  5
88
  8
FINAL_PROJECT_CHASSIS_2_V1
 66
     1
 10
0.0
 20
0.0
 30
0.0
 70
     1
  0
VERTEX
  5
224
  8
FINAL_PROJECT_CHASSIS_2_V1
 10
507.8924
 20
-177.6896
 30
0.0
  0
VERTEX
  5
225
  8
FINAL_PROJECT_CHASSIS_2_V1
 10
507.7924
 20
-177.5896
 30
0.0
  0
VERTEX
  5
226
  8
FINAL_PROJECT_CHASSIS_2_V1
 10
507.6924
 20
-177.6896
 30
0.0
  0
VERTEX
  5
227
  8
FINAL_PROJECT_CHASSIS_2_V1
 10
507.7924
 20
-177.7896
 30
0.0
  0
VERTEX
  5
228
  8
FINAL_PROJECT_CHASSIS_2_V1
 10
507.8924
 20
-177.6896
 30
0.0
  0
SEQEND
  5
5D1
  8
FINAL_PROJECT_CHASSIS_2_V1
  0
POLYLINE
  5
89
  8
FINAL_PROJECT_CHASSIS_2_V1
 66
     1
 10
0.0
 20
0.0
 30
0.0
 70
     1
  0
VERTEX
  5
229
  8
FINAL_PROJECT_CHASSIS_2_V1
 10
-53.0446
 20
-187.6174
 30
0.0
  0
VERTEX
  5
22A
  8
FINAL_PROJECT_CHASSIS_2_V1
 10
-53.1446
 20
-187.5174
 30
0.0
  0
VERTEX
  5
22B
  8
FINAL_PROJECT_CHASSIS_2_V1
 10
-53.2446
 20
-187.6174
 30
0.0
  0
VERTEX
  5
22C
  8
FINAL_PROJECT_CHASSIS_2_V1
 10
-53.1446
 20
-187.7174
 30
0.0
  0
VERTEX
  5
22D
  8
FINAL_PROJECT_CHASSIS_2_V1
 10
-53.0446
 20
-187.6174
 30
0.0
  0
SEQEND
  5
5D2
  8
FINAL_PROJECT_CHASSIS_2_V1
  0
POLYLINE
  5
8A
  8
FINAL_PROJECT_CHASSIS_2_V1
 66
     1
 10
0.0
 20
0.0
 30
0.0
 70
     1
  0
VERTEX
  5
22E
  8
FINAL_PROJECT_CHASSIS_2_V1
 10
440.9224
 20
-198.0826
 30
0.0
  0
VERTEX
  5
22F
  8
FINAL_PROJECT_CHASSIS_2_V1
 10
440.8224
 20
-197.9826
 30
0.0
  0
VERTEX
  5
230
  8
FINAL_PROJECT_CHASSIS_2_V1
 10
440.7224
 20
-198.0826
 30
0.0
  0
VERTEX
  5
231
  8
FINAL_PROJECT_CHASSIS_2_V1
 10
440.8224
 20
-198.1826
 30
0.0
  0
VERTEX
  5
232
  8
FINAL_PROJECT_CHASSIS_2_V1
 10
440.9224
 20
-198.0826
 30
0.0
  0
SEQEND
  5
5D3
  8
FINAL_PROJECT_CHASSIS_2_V1
  0
POLYLINE
  5
8B
  8
FINAL_PROJECT_CHASSIS_2_V1
 66
     1
 10
0.0
 20
0.0
 30
0.0
 70
     1
  0
VERTEX
  5
233
  8
FINAL_PROJECT_CHASSIS_2_V1
 10
-50.0841
 20
1022.7944
 30
0.0
  0
VERTEX
  5
234
  8
FINAL_PROJECT_CHASSIS_2_V1
 10
-50.1841
 20
1022.8944
 30
0.0
  0
VERTEX
  5
235
  8
FINAL_PROJECT_CHASSIS_2_V1
 10
-50.2841
 20
1022.7944
 30
0.0
  0
VERTEX
  5
236
  8
FINAL_PROJECT_CHASSIS_2_V1
 10
-50.1841
 20
1022.6944
 30
0.0
  0
VERTEX
  5
237
  8
FINAL_PROJECT_CHASSIS_2_V1
 10
-50.0841
 20
1022.7944
 30
0.0
  0
SEQEND
  5
5D4
  8
FINAL_PROJECT_CHASSIS_2_V1
  0
POLYLINE
  5
8C
  8
FINAL_PROJECT_CHASSIS_2_V1
 66
     1
 10
0.0
 20
0.0
 30
0.0
 70
     1
  0
VERTEX
  5
238
  8
FINAL_PROJECT_CHASSIS_2_V1
 10
-500.0841
 20
1022.7944
 30
0.0
  0
VERTEX
  5
239
  8
FINAL_PROJECT_CHASSIS_2_V1
 10
-500.1841
 20
1022.8944
 30
0.0
  0
VERTEX
  5
23A
  8
FINAL_PROJECT_CHASSIS_2_V1
 10
-500.2841
 20
1022.7944
 30
0.0
  0
VERTEX
  5
23B
  8
FINAL_PROJECT_CHASSIS_2_V1
 10
-500.1841
 20
1022.6944
 30
0.0
  0
VERTEX
  5
23C
  8
FINAL_PROJECT_CHASSIS_2_V1
 10
-500.0841
 20
1022.7944
 30
0.0
  0
SEQEND
  5
5D5
  8
FINAL_PROJECT_CHASSIS_2_V1
  0
POLYLINE
  5
8D
  8
FINAL_PROJECT_CHASSIS_2_V1
 66
     1
 10
0.0
 20
0.0
 30
0.0
 70
     1
  0
VERTEX
  5
23D
  8
FINAL_PROJECT_CHASSIS_2_V1
 10
-53.0446
 20
-187.6174
 30
0.0
  0
VERTEX
  5
23E
  8
FINAL_PROJECT_CHASSIS_2_V1
 10
-53.1446
 20
-187.5174
 30
0.0
  0
VERTEX
  5
23F
  8
FINAL_PROJECT_CHASSIS_2_V1
 10
-53.2446
 20
-187.6174
 30
0.0
  0
VERTEX
  5
240
  8
FINAL_PROJECT_CHASSIS_2_V1
 10
-53.1446
 20
-187.7174
 30
0.0
  0
VERTEX
  5
241
  8
FINAL_PROJECT_CHASSIS_2_V1
 10
-53.0446
 20
-187.6174
 30
0.0
  0
SEQEND
  5
5D6
  8
FINAL_PROJECT_CHASSIS_2_V1
  0
POLYLINE
  5
8E
  8
FINAL_PROJECT_CHASSIS_2_V1
 66
     1
 10
0.0
 20
0.0
 30
0.0
 70
     1
  0
VERTEX
  5
242
  8
FINAL_PROJECT_CHASSIS_2_V1
 10
-53.0446
 20
-637.6174
 30
0.0
  0
VERTEX
  5
243
  8
FINAL_PROJECT_CHASSIS_2_V1
 10
-53.1446
 20
-637.5174
 30
0.0
  0
VERTEX
  5
244
  8
FINAL_PROJECT_CHASSIS_2_V1
 10
-53.2446
 20
-637.6174
 30
0.0
  0
VERTEX
  5
245
  8
FINAL_PROJECT_CHASSIS_2_V1
 10
-53.1446
 20
-637.7174
 30
0.0
  0
VERTEX
  5
246
  8
FINAL_PROJECT_CHASSIS_2_V1
 10
-53.0446
 20
-637.6174
 30
0.0
  0
SEQEND
  5
5D7
  8
FINAL_PROJECT_CHASSIS_2_V1
  0
POLYLINE
  5
8F
  8
FINAL_PROJECT_CHASSIS_2_V1
 66
     1
 10
0.0
 20
0.0
 30
0.0
 70
     1
  0
VERTEX
  5
247
  8
FINAL_PROJECT_CHASSIS_2_V1
 10
-53.0446
 20
-187.6174
 30
0.0
  0
VERTEX
  5
248
  8
FINAL_PROJECT_CHASSIS_2_V1
 10
-53.1446
 20
-187.5174
 30
0.0
  0
VERTEX
  5
249
  8
FINAL_PROJECT_CHASSIS_2_V1
 10
-53.2446
 20
-187.6174
 30
0.0
  0
VERTEX
  5
24A
  8
FINAL_PROJECT_CHASSIS_2_V1
 10
-53.1446
 20
-187.7174
 30
0.0
  0
VERTEX
  5
24B
  8
FINAL_PROJECT_CHASSIS_2_V1
 10
-53.0446
 20
-187.6174
 30
0.0
  0
SEQEND
  5
5D8
  8
FINAL_PROJECT_CHASSIS_2_V1
  0
POLYLINE
  5
90
  8
FINAL_PROJECT_CHASSIS_2_V1
 66
     1
 10
0.0
 20
0.0
 30
0.0
 70
     1
  0
VERTEX
  5
24C
  8
FINAL_PROJECT_CHASSIS_2_V1
 10
440.9224
 20
-198.0826
 30
0.0
  0
VERTEX
  5
24D
  8
FINAL_PROJECT_CHASSIS_2_V1
 10
440.8224
 20
-197.9826
 30
0.0
  0
VERTEX
  5
24E
  8
FINAL_PROJECT_CHASSIS_2_V1
 10
440.7224
 20
-198.0826
 30
0.0
  0
VERTEX
  5
24F
  8
FINAL_PROJECT_CHASSIS_2_V1
 10
440.8224
 20
-198.1826
 30
0.0
  0
VERTEX
  5
250
  8
FINAL_PROJECT_CHASSIS_2_V1
 10
440.9224
 20
-198.0826
 30
0.0
  0
SEQEND
  5
5D9
  8
FINAL_PROJECT_CHASSIS_2_V1
  0
POLYLINE
  5
91
  8
FINAL_PROJECT_CHASSIS_2_V1
 66
     1
 10
0.0
 20
0.0
 30
0.0
  0
VERTEX
  5
251
  8
FINAL_PROJECT_CHASSIS_2_V1
 10
-233.0908
 20
422.317
 30
0.0
  0
VERTEX
  5
252
  8
FINAL_PROJECT_CHASSIS_2_V1
 10
-143.0908
 20
422.317
 30
0.0
  0
SEQEND
  5
5DA
  8
FINAL_PROJECT_CHASSIS_2_V1
  0
POLYLINE
  5
92
  8
FINAL_PROJECT_CHASSIS_2_V1
 66
     1
 10
0.0
 20
0.0
 30
0.0
  0
VERTEX
  5
253
  8
FINAL_PROJECT_CHASSIS_2_V1
 10
-98.0908
 20
175.868
 30
0.0
  0
VERTEX
  5
254
  8
FINAL_PROJECT_CHASSIS_2_V1
 10
-98.0908
 20
-49.132
 30
0.0
  0
SEQEND
  5
5DB
  8
FINAL_PROJECT_CHASSIS_2_V1
  0
POLYLINE
  5
93
  8
FINAL_PROJECT_CHASSIS_2_V1
 66
     1
 10
0.0
 20
0.0
 30
0.0
  0
VERTEX
  5
255
  8
FINAL_PROJECT_CHASSIS_2_V1
 10
-33.0908
 20
387.317
 30
0.0
  0
VERTEX
  5
256
  8
FINAL_PROJECT_CHASSIS_2_V1
 10
-33.1887
 20
389.2936
 30
0.0
  0
VERTEX
  5
257
  8
FINAL_PROJECT_CHASSIS_2_V1
 10
-33.4786
 20
391.2368
 30
0.0
  0
VERTEX
  5
258
  8
FINAL_PROJECT_CHASSIS_2_V1
 10
-33.9553
 20
393.1334
 30
0.0
  0
VERTEX
  5
259
  8
FINAL_PROJECT_CHASSIS_2_V1
 10
-34.6132
 20
394.9704
 30
0.0
  0
VERTEX
  5
25A
  8
FINAL_PROJECT_CHASSIS_2_V1
 10
-35.4469
 20
396.7345
 30
0.0
  0
VERTEX
  5
25B
  8
FINAL_PROJECT_CHASSIS_2_V1
 10
-36.451
 20
398.4127
 30
0.0
  0
VERTEX
  5
25C
  8
FINAL_PROJECT_CHASSIS_2_V1
 10
-37.6201
 20
399.9919
 30
0.0
  0
VERTEX
  5
25D
  8
FINAL_PROJECT_CHASSIS_2_V1
 10
-38.9488
 20
401.459
 30
0.0
  0
VERTEX
  5
25E
  8
FINAL_PROJECT_CHASSIS_2_V1
 10
-40.4159
 20
402.7877
 30
0.0
  0
VERTEX
  5
25F
  8
FINAL_PROJECT_CHASSIS_2_V1
 10
-41.9951
 20
403.9568
 30
0.0
  0
VERTEX
  5
260
  8
FINAL_PROJECT_CHASSIS_2_V1
 10
-43.6733
 20
404.9609
 30
0.0
  0
VERTEX
  5
261
  8
FINAL_PROJECT_CHASSIS_2_V1
 10
-45.4374
 20
405.7946
 30
0.0
  0
VERTEX
  5
262
  8
FINAL_PROJECT_CHASSIS_2_V1
 10
-47.2744
 20
406.4525
 30
0.0
  0
VERTEX
  5
263
  8
FINAL_PROJECT_CHASSIS_2_V1
 10
-49.171
 20
406.9292
 30
0.0
  0
VERTEX
  5
264
  8
FINAL_PROJECT_CHASSIS_2_V1
 10
-51.1142
 20
407.2191
 30
0.0
  0
VERTEX
  5
265
  8
FINAL_PROJECT_CHASSIS_2_V1
 10
-53.0908
 20
407.317
 30
0.0
  0
SEQEND
  5
5DC
  8
FINAL_PROJECT_CHASSIS_2_V1
  0
POLYLINE
  5
94
  8
FINAL_PROJECT_CHASSIS_2_V1
 66
     1
 10
0.0
 20
0.0
 30
0.0
  0
VERTEX
  5
266
  8
FINAL_PROJECT_CHASSIS_2_V1
 10
-448.0908
 20
-60.683
 30
0.0
  0
VERTEX
  5
267
  8
FINAL_PROJECT_CHASSIS_2_V1
 10
-433.0908
 20
-60.683
 30
0.0
  0
SEQEND
  5
5DD
  8
FINAL_PROJECT_CHASSIS_2_V1
  0
POLYLINE
  5
95
  8
FINAL_PROJECT_CHASSIS_2_V1
 66
     1
 10
0.0
 20
0.0
 30
0.0
  0
VERTEX
  5
268
  8
FINAL_PROJECT_CHASSIS_2_V1
 10
-113.0908
 20
-42.683
 30
0.0
  0
VERTEX
  5
269
  8
FINAL_PROJECT_CHASSIS_2_V1
 10
-113.0908
 20
-60.683
 30
0.0
  0
SEQEND
  5
5DE
  8
FINAL_PROJECT_CHASSIS_2_V1
  0
POLYLINE
  5
96
  8
FINAL_PROJECT_CHASSIS_2_V1
 66
     1
 10
0.0
 20
0.0
 30
0.0
  0
VERTEX
  5
26A
  8
FINAL_PROJECT_CHASSIS_2_V1
 10
-283.0908
 20
422.317
 30
0.0
  0
VERTEX
  5
26B
  8
FINAL_PROJECT_CHASSIS_2_V1
 10
-283.0908
 20
407.317
 30
0.0
  0
SEQEND
  5
5DF
  8
FINAL_PROJECT_CHASSIS_2_V1
  0
POLYLINE
  5
97
  8
FINAL_PROJECT_CHASSIS_2_V1
 66
     1
 10
0.0
 20
0.0
 30
0.0
  0
VERTEX
  5
26C
  8
FINAL_PROJECT_CHASSIS_2_V1
 10
-33.0908
 20
387.317
 30
0.0
  0
VERTEX
  5
26D
  8
FINAL_PROJECT_CHASSIS_2_V1
 10
-33.0908
 20
-42.683
 30
0.0
  0
SEQEND
  5
5E0
  8
FINAL_PROJECT_CHASSIS_2_V1
  0
POLYLINE
  5
98
  8
FINAL_PROJECT_CHASSIS_2_V1
 66
     1
 10
0.0
 20
0.0
 30
0.0
  0
VERTEX
  5
26E
  8
FINAL_PROJECT_CHASSIS_2_V1
 10
-418.0908
 20
-60.683
 30
0.0
  0
VERTEX
  5
26F
  8
FINAL_PROJECT_CHASSIS_2_V1
 10
-418.0908
 20
-42.668
 30
0.0
  0
SEQEND
  5
5E1
  8
FINAL_PROJECT_CHASSIS_2_V1
  0
POLYLINE
  5
99
  8
FINAL_PROJECT_CHASSIS_2_V1
 66
     1
 10
0.0
 20
0.0
 30
0.0
  0
VERTEX
  5
270
  8
FINAL_PROJECT_CHASSIS_2_V1
 10
-448.0908
 20
-42.683
 30
0.0
  0
VERTEX
  5
271
  8
FINAL_PROJECT_CHASSIS_2_V1
 10
-483.0908
 20
-42.683
 30
0.0
  0
SEQEND
  5
5E2
  8
FINAL_PROJECT_CHASSIS_2_V1
  0
POLYLINE
  5
9A
  8
FINAL_PROJECT_CHASSIS_2_V1
 66
     1
 10
0.0
 20
0.0
 30
0.0
  0
VERTEX
  5
272
  8
FINAL_PROJECT_CHASSIS_2_V1
 10
-403.0908
 20
-42.683
 30
0.0
  0
VERTEX
  5
273
  8
FINAL_PROJECT_CHASSIS_2_V1
 10
-403.0908
 20
-60.683
 30
0.0
  0
SEQEND
  5
5E3
  8
FINAL_PROJECT_CHASSIS_2_V1
  0
POLYLINE
  5
9B
  8
FINAL_PROJECT_CHASSIS_2_V1
 66
     1
 10
0.0
 20
0.0
 30
0.0
  0
VERTEX
  5
274
  8
FINAL_PROJECT_CHASSIS_2_V1
 10
-448.0908
 20
-42.683
 30
0.0
  0
VERTEX
  5
275
  8
FINAL_PROJECT_CHASSIS_2_V1
 10
-448.0908
 20
-60.683
 30
0.0
  0
SEQEND
  5
5E4
  8
FINAL_PROJECT_CHASSIS_2_V1
  0
POLYLINE
  5
9C
  8
FINAL_PROJECT_CHASSIS_2_V1
 66
     1
 10
0.0
 20
0.0
 30
0.0
  0
VERTEX
  5
276
  8
FINAL_PROJECT_CHASSIS_2_V1
 10
-143.0908
 20
422.317
 30
0.0
  0
VERTEX
  5
277
  8
FINAL_PROJECT_CHASSIS_2_V1
 10
-143.0908
 20
407.317
 30
0.0
  0
SEQEND
  5
5E5
  8
FINAL_PROJECT_CHASSIS_2_V1
  0
POLYLINE
  5
9D
  8
FINAL_PROJECT_CHASSIS_2_V1
 66
     1
 10
0.0
 20
0.0
 30
0.0
  0
VERTEX
  5
278
  8
FINAL_PROJECT_CHASSIS_2_V1
 10
-433.0908
 20
182.317
 30
0.0
  0
VERTEX
  5
279
  8
FINAL_PROJECT_CHASSIS_2_V1
 10
-433.0908
 20
-42.683
 30
0.0
  0
SEQEND
  5
5E6
  8
FINAL_PROJECT_CHASSIS_2_V1
  0
POLYLINE
  5
9E
  8
FINAL_PROJECT_CHASSIS_2_V1
 66
     1
 10
0.0
 20
0.0
 30
0.0
  0
VERTEX
  5
27A
  8
FINAL_PROJECT_CHASSIS_2_V1
 10
-368.0908
 20
287.317
 30
0.0
  0
VERTEX
  5
27B
  8
FINAL_PROJECT_CHASSIS_2_V1
 10
-368.0908
 20
-42.683
 30
0.0
  0
SEQEND
  5
5E7
  8
FINAL_PROJECT_CHASSIS_2_V1
  0
POLYLINE
  5
9F
  8
FINAL_PROJECT_CHASSIS_2_V1
 66
     1
 10
0.0
 20
0.0
 30
0.0
  0
VERTEX
  5
27C
  8
FINAL_PROJECT_CHASSIS_2_V1
 10
-373.0908
 20
407.317
 30
0.0
  0
VERTEX
  5
27D
  8
FINAL_PROJECT_CHASSIS_2_V1
 10
-373.0908
 20
422.317
 30
0.0
  0
SEQEND
  5
5E8
  8
FINAL_PROJECT_CHASSIS_2_V1
  0
POLYLINE
  5
A0
  8
FINAL_PROJECT_CHASSIS_2_V1
 66
     1
 10
0.0
 20
0.0
 30
0.0
  0
VERTEX
  5
27E
  8
FINAL_PROJECT_CHASSIS_2_V1
 10
-403.0908
 20
-60.683
 30
0.0
  0
VERTEX
  5
27F
  8
FINAL_PROJECT_CHASSIS_2_V1
 10
-418.0908
 20
-60.683
 30
0.0
  0
SEQEND
  5
5E9
  8
FINAL_PROJECT_CHASSIS_2_V1
  0
POLYLINE
  5
A1
  8
FINAL_PROJECT_CHASSIS_2_V1
 66
     1
 10
0.0
 20
0.0
 30
0.0
  0
VERTEX
  5
280
  8
FINAL_PROJECT_CHASSIS_2_V1
 10
-418.0908
 20
182.317
 30
0.0
  0
VERTEX
  5
281
  8
FINAL_PROJECT_CHASSIS_2_V1
 10
-433.0908
 20
182.317
 30
0.0
  0
SEQEND
  5
5EA
  8
FINAL_PROJECT_CHASSIS_2_V1
  0
POLYLINE
  5
A2
  8
FINAL_PROJECT_CHASSIS_2_V1
 66
     1
 10
0.0
 20
0.0
 30
0.0
  0
VERTEX
  5
282
  8
FINAL_PROJECT_CHASSIS_2_V1
 10
-148.0908
 20
287.317
 30
0.0
  0
VERTEX
  5
283
  8
FINAL_PROJECT_CHASSIS_2_V1
 10
-148.0908
 20
-42.683
 30
0.0
  0
SEQEND
  5
5EB
  8
FINAL_PROJECT_CHASSIS_2_V1
  0
POLYLINE
  5
A3
  8
FINAL_PROJECT_CHASSIS_2_V1
 66
     1
 10
0.0
 20
0.0
 30
0.0
  0
VERTEX
  5
284
  8
FINAL_PROJECT_CHASSIS_2_V1
 10
-113.0908
 20
-60.683
 30
0.0
  0
VERTEX
  5
285
  8
FINAL_PROJECT_CHASSIS_2_V1
 10
-98.0908
 20
-60.683
 30
0.0
  0
SEQEND
  5
5EC
  8
FINAL_PROJECT_CHASSIS_2_V1
  0
POLYLINE
  5
A4
  8
FINAL_PROJECT_CHASSIS_2_V1
 66
     1
 10
0.0
 20
0.0
 30
0.0
  0
VERTEX
  5
286
  8
FINAL_PROJECT_CHASSIS_2_V1
 10
-463.0908
 20
407.317
 30
0.0
  0
VERTEX
  5
287
  8
FINAL_PROJECT_CHASSIS_2_V1
 10
-373.0908
 20
407.317
 30
0.0
  0
SEQEND
  5
5ED
  8
FINAL_PROJECT_CHASSIS_2_V1
  0
POLYLINE
  5
A5
  8
FINAL_PROJECT_CHASSIS_2_V1
 66
     1
 10
0.0
 20
0.0
 30
0.0
  0
VERTEX
  5
288
  8
FINAL_PROJECT_CHASSIS_2_V1
 10
-348.0908
 20
307.317
 30
0.0
  0
VERTEX
  5
289
  8
FINAL_PROJECT_CHASSIS_2_V1
 10
-350.0678
 20
307.2191
 30
0.0
  0
VERTEX
  5
28A
  8
FINAL_PROJECT_CHASSIS_2_V1
 10
-352.0112
 20
306.9292
 30
0.0
  0
VERTEX
  5
28B
  8
FINAL_PROJECT_CHASSIS_2_V1
 10
-353.9079
 20
306.4525
 30
0.0
  0
VERTEX
  5
28C
  8
FINAL_PROJECT_CHASSIS_2_V1
 10
-355.7449
 20
305.7946
 30
0.0
  0
VERTEX
  5
28D
  8
FINAL_PROJECT_CHASSIS_2_V1
 10
-357.509
 20
304.9609
 30
0.0
  0
VERTEX
  5
28E
  8
FINAL_PROJECT_CHASSIS_2_V1
 10
-359.1871
 20
303.9568
 30
0.0
  0
VERTEX
  5
28F
  8
FINAL_PROJECT_CHASSIS_2_V1
 10
-360.7661
 20
302.7877
 30
0.0
  0
VERTEX
  5
290
  8
FINAL_PROJECT_CHASSIS_2_V1
 10
-362.2328
 20
301.459
 30
0.0
  0
VERTEX
  5
291
  8
FINAL_PROJECT_CHASSIS_2_V1
 10
-363.5615
 20
299.9919
 30
0.0
  0
VERTEX
  5
292
  8
FINAL_PROJECT_CHASSIS_2_V1
 10
-364.7306
 20
298.4127
 30
0.0
  0
VERTEX
  5
293
  8
FINAL_PROJECT_CHASSIS_2_V1
 10
-365.7347
 20
296.7345
 30
0.0
  0
VERTEX
  5
294
  8
FINAL_PROJECT_CHASSIS_2_V1
 10
-366.5684
 20
294.9704
 30
0.0
  0
VERTEX
  5
295
  8
FINAL_PROJECT_CHASSIS_2_V1
 10
-367.2263
 20
293.1334
 30
0.0
  0
VERTEX
  5
296
  8
FINAL_PROJECT_CHASSIS_2_V1
 10
-367.703
 20
291.2368
 30
0.0
  0
VERTEX
  5
297
  8
FINAL_PROJECT_CHASSIS_2_V1
 10
-367.9929
 20
289.2936
 30
0.0
  0
VERTEX
  5
298
  8
FINAL_PROJECT_CHASSIS_2_V1
 10
-368.0908
 20
287.317
 30
0.0
  0
SEQEND
  5
5EE
  8
FINAL_PROJECT_CHASSIS_2_V1
  0
POLYLINE
  5
A6
  8
FINAL_PROJECT_CHASSIS_2_V1
 66
     1
 10
0.0
 20
0.0
 30
0.0
  0
VERTEX
  5
299
  8
FINAL_PROJECT_CHASSIS_2_V1
 10
-433.0908
 20
-60.683
 30
0.0
  0
VERTEX
  5
29A
  8
FINAL_PROJECT_CHASSIS_2_V1
 10
-433.0908
 20
-42.683
 30
0.0
  0
SEQEND
  5
5EF
  8
FINAL_PROJECT_CHASSIS_2_V1
  0
POLYLINE
  5
A7
  8
FINAL_PROJECT_CHASSIS_2_V1
 66
     1
 10
0.0
 20
0.0
 30
0.0
  0
VERTEX
  5
29B
  8
FINAL_PROJECT_CHASSIS_2_V1
 10
-83.0908
 20
175.868
 30
0.0
  0
VERTEX
  5
29C
  8
FINAL_PROJECT_CHASSIS_2_V1
 10
-98.0908
 20
175.868
 30
0.0
  0
SEQEND
  5
5F0
  8
FINAL_PROJECT_CHASSIS_2_V1
  0
POLYLINE
  5
A8
  8
FINAL_PROJECT_CHASSIS_2_V1
 66
     1
 10
0.0
 20
0.0
 30
0.0
  0
VERTEX
  5
29D
  8
FINAL_PROJECT_CHASSIS_2_V1
 10
-33.0908
 20
-42.683
 30
0.0
  0
VERTEX
  5
29E
  8
FINAL_PROJECT_CHASSIS_2_V1
 10
-68.0908
 20
-42.683
 30
0.0
  0
SEQEND
  5
5F1
  8
FINAL_PROJECT_CHASSIS_2_V1
  0
POLYLINE
  5
A9
  8
FINAL_PROJECT_CHASSIS_2_V1
 66
     1
 10
0.0
 20
0.0
 30
0.0
  0
VERTEX
  5
29F
  8
FINAL_PROJECT_CHASSIS_2_V1
 10
-348.0908
 20
307.317
 30
0.0
  0
VERTEX
  5
2A0
  8
FINAL_PROJECT_CHASSIS_2_V1
 10
-168.0908
 20
307.317
 30
0.0
  0
SEQEND
  5
5F2
  8
FINAL_PROJECT_CHASSIS_2_V1
  0
POLYLINE
  5
AA
  8
FINAL_PROJECT_CHASSIS_2_V1
 66
     1
 10
0.0
 20
0.0
 30
0.0
  0
VERTEX
  5
2A1
  8
FINAL_PROJECT_CHASSIS_2_V1
 10
-83.0908
 20
-49.132
 30
0.0
  0
VERTEX
  5
2A2
  8
FINAL_PROJECT_CHASSIS_2_V1
 10
-83.0908
 20
175.868
 30
0.0
  0
SEQEND
  5
5F3
  8
FINAL_PROJECT_CHASSIS_2_V1
  0
POLYLINE
  5
AB
  8
FINAL_PROJECT_CHASSIS_2_V1
 66
     1
 10
0.0
 20
0.0
 30
0.0
  0
VERTEX
  5
2A3
  8
FINAL_PROJECT_CHASSIS_2_V1
 10
-113.0908
 20
-42.683
 30
0.0
  0
VERTEX
  5
2A4
  8
FINAL_PROJECT_CHASSIS_2_V1
 10
-148.0908
 20
-42.683
 30
0.0
  0
SEQEND
  5
5F4
  8
FINAL_PROJECT_CHASSIS_2_V1
  0
POLYLINE
  5
AC
  8
FINAL_PROJECT_CHASSIS_2_V1
 66
     1
 10
0.0
 20
0.0
 30
0.0
  0
VERTEX
  5
2A5
  8
FINAL_PROJECT_CHASSIS_2_V1
 10
-418.0908
 20
-42.668
 30
0.0
  0
VERTEX
  5
2A6
  8
FINAL_PROJECT_CHASSIS_2_V1
 10
-418.0908
 20
182.317
 30
0.0
  0
SEQEND
  5
5F5
  8
FINAL_PROJECT_CHASSIS_2_V1
  0
POLYLINE
  5
AD
  8
FINAL_PROJECT_CHASSIS_2_V1
 66
     1
 10
0.0
 20
0.0
 30
0.0
  0
VERTEX
  5
2A7
  8
FINAL_PROJECT_CHASSIS_2_V1
 10
-83.0908
 20
-60.683
 30
0.0
  0
VERTEX
  5
2A8
  8
FINAL_PROJECT_CHASSIS_2_V1
 10
-83.0908
 20
-49.132
 30
0.0
  0
SEQEND
  5
5F6
  8
FINAL_PROJECT_CHASSIS_2_V1
  0
POLYLINE
  5
AE
  8
FINAL_PROJECT_CHASSIS_2_V1
 66
     1
 10
0.0
 20
0.0
 30
0.0
  0
VERTEX
  5
2A9
  8
FINAL_PROJECT_CHASSIS_2_V1
 10
-463.0908
 20
407.317
 30
0.0
  0
VERTEX
  5
2AA
  8
FINAL_PROJECT_CHASSIS_2_V1
 10
-465.0678
 20
407.2191
 30
0.0
  0
VERTEX
  5
2AB
  8
FINAL_PROJECT_CHASSIS_2_V1
 10
-467.0112
 20
406.9292
 30
0.0
  0
VERTEX
  5
2AC
  8
FINAL_PROJECT_CHASSIS_2_V1
 10
-468.9079
 20
406.4525
 30
0.0
  0
VERTEX
  5
2AD
  8
FINAL_PROJECT_CHASSIS_2_V1
 10
-470.7449
 20
405.7946
 30
0.0
  0
VERTEX
  5
2AE
  8
FINAL_PROJECT_CHASSIS_2_V1
 10
-472.509
 20
404.9609
 30
0.0
  0
VERTEX
  5
2AF
  8
FINAL_PROJECT_CHASSIS_2_V1
 10
-474.1871
 20
403.9568
 30
0.0
  0
VERTEX
  5
2B0
  8
FINAL_PROJECT_CHASSIS_2_V1
 10
-475.7661
 20
402.7877
 30
0.0
  0
VERTEX
  5
2B1
  8
FINAL_PROJECT_CHASSIS_2_V1
 10
-477.2328
 20
401.459
 30
0.0
  0
VERTEX
  5
2B2
  8
FINAL_PROJECT_CHASSIS_2_V1
 10
-478.5615
 20
399.9919
 30
0.0
  0
VERTEX
  5
2B3
  8
FINAL_PROJECT_CHASSIS_2_V1
 10
-479.7306
 20
398.4127
 30
0.0
  0
VERTEX
  5
2B4
  8
FINAL_PROJECT_CHASSIS_2_V1
 10
-480.7347
 20
396.7345
 30
0.0
  0
VERTEX
  5
2B5
  8
FINAL_PROJECT_CHASSIS_2_V1
 10
-481.5684
 20
394.9704
 30
0.0
  0
VERTEX
  5
2B6
  8
FINAL_PROJECT_CHASSIS_2_V1
 10
-482.2263
 20
393.1334
 30
0.0
  0
VERTEX
  5
2B7
  8
FINAL_PROJECT_CHASSIS_2_V1
 10
-482.703
 20
391.2368
 30
0.0
  0
VERTEX
  5
2B8
  8
FINAL_PROJECT_CHASSIS_2_V1
 10
-482.9929
 20
389.2936
 30
0.0
  0
VERTEX
  5
2B9
  8
FINAL_PROJECT_CHASSIS_2_V1
 10
-483.0908
 20
387.317
 30
0.0
  0
SEQEND
  5
5F7
  8
FINAL_PROJECT_CHASSIS_2_V1
  0
POLYLINE
  5
AF
  8
FINAL_PROJECT_CHASSIS_2_V1
 66
     1
 10
0.0
 20
0.0
 30
0.0
  0
VERTEX
  5
2BA
  8
FINAL_PROJECT_CHASSIS_2_V1
 10
-68.0908
 20
-60.683
 30
0.0
  0
VERTEX
  5
2BB
  8
FINAL_PROJECT_CHASSIS_2_V1
 10
-83.0908
 20
-60.683
 30
0.0
  0
SEQEND
  5
5F8
  8
FINAL_PROJECT_CHASSIS_2_V1
  0
POLYLINE
  5
B0
  8
FINAL_PROJECT_CHASSIS_2_V1
 66
     1
 10
0.0
 20
0.0
 30
0.0
  0
VERTEX
  5
2BC
  8
FINAL_PROJECT_CHASSIS_2_V1
 10
-373.0908
 20
422.317
 30
0.0
  0
VERTEX
  5
2BD
  8
FINAL_PROJECT_CHASSIS_2_V1
 10
-283.0908
 20
422.317
 30
0.0
  0
SEQEND
  5
5F9
  8
FINAL_PROJECT_CHASSIS_2_V1
  0
POLYLINE
  5
B1
  8
FINAL_PROJECT_CHASSIS_2_V1
 66
     1
 10
0.0
 20
0.0
 30
0.0
  0
VERTEX
  5
2BE
  8
FINAL_PROJECT_CHASSIS_2_V1
 10
-68.0908
 20
-42.683
 30
0.0
  0
VERTEX
  5
2BF
  8
FINAL_PROJECT_CHASSIS_2_V1
 10
-68.0908
 20
-60.683
 30
0.0
  0
SEQEND
  5
5FA
  8
FINAL_PROJECT_CHASSIS_2_V1
  0
POLYLINE
  5
B2
  8
FINAL_PROJECT_CHASSIS_2_V1
 66
     1
 10
0.0
 20
0.0
 30
0.0
  0
VERTEX
  5
2C0
  8
FINAL_PROJECT_CHASSIS_2_V1
 10
-368.0908
 20
-42.683
 30
0.0
  0
VERTEX
  5
2C1
  8
FINAL_PROJECT_CHASSIS_2_V1
 10
-403.0908
 20
-42.683
 30
0.0
  0
SEQEND
  5
5FB
  8
FINAL_PROJECT_CHASSIS_2_V1
  0
POLYLINE
  5
B3
  8
FINAL_PROJECT_CHASSIS_2_V1
 66
     1
 10
0.0
 20
0.0
 30
0.0
  0
VERTEX
  5
2C2
  8
FINAL_PROJECT_CHASSIS_2_V1
 10
-148.0908
 20
287.317
 30
0.0
  0
VERTEX
  5
2C3
  8
FINAL_PROJECT_CHASSIS_2_V1
 10
-148.1887
 20
289.2936
 30
0.0
  0
VERTEX
  5
2C4
  8
FINAL_PROJECT_CHASSIS_2_V1
 10
-148.4786
 20
291.2368
 30
0.0
  0
VERTEX
  5
2C5
  8
FINAL_PROJECT_CHASSIS_2_V1
 10
-148.9553
 20
293.1334
 30
0.0
  0
VERTEX
  5
2C6
  8
FINAL_PROJECT_CHASSIS_2_V1
 10
-149.6132
 20
294.9704
 30
0.0
  0
VERTEX
  5
2C7
  8
FINAL_PROJECT_CHASSIS_2_V1
 10
-150.4469
 20
296.7345
 30
0.0
  0
VERTEX
  5
2C8
  8
FINAL_PROJECT_CHASSIS_2_V1
 10
-151.451
 20
298.4127
 30
0.0
  0
VERTEX
  5
2C9
  8
FINAL_PROJECT_CHASSIS_2_V1
 10
-152.6201
 20
299.9919
 30
0.0
  0
VERTEX
  5
2CA
  8
FINAL_PROJECT_CHASSIS_2_V1
 10
-153.9488
 20
301.459
 30
0.0
  0
VERTEX
  5
2CB
  8
FINAL_PROJECT_CHASSIS_2_V1
 10
-155.4159
 20
302.7877
 30
0.0
  0
VERTEX
  5
2CC
  8
FINAL_PROJECT_CHASSIS_2_V1
 10
-156.9951
 20
303.9568
 30
0.0
  0
VERTEX
  5
2CD
  8
FINAL_PROJECT_CHASSIS_2_V1
 10
-158.6733
 20
304.9609
 30
0.0
  0
VERTEX
  5
2CE
  8
FINAL_PROJECT_CHASSIS_2_V1
 10
-160.4374
 20
305.7946
 30
0.0
  0
VERTEX
  5
2CF
  8
FINAL_PROJECT_CHASSIS_2_V1
 10
-162.2744
 20
306.4525
 30
0.0
  0
VERTEX
  5
2D0
  8
FINAL_PROJECT_CHASSIS_2_V1
 10
-164.171
 20
306.9292
 30
0.0
  0
VERTEX
  5
2D1
  8
FINAL_PROJECT_CHASSIS_2_V1
 10
-166.1142
 20
307.2191
 30
0.0
  0
VERTEX
  5
2D2
  8
FINAL_PROJECT_CHASSIS_2_V1
 10
-168.0908
 20
307.317
 30
0.0
  0
SEQEND
  5
5FC
  8
FINAL_PROJECT_CHASSIS_2_V1
  0
POLYLINE
  5
B4
  8
FINAL_PROJECT_CHASSIS_2_V1
 66
     1
 10
0.0
 20
0.0
 30
0.0
  0
VERTEX
  5
2D3
  8
FINAL_PROJECT_CHASSIS_2_V1
 10
-373.0908
 20
422.317
 30
0.0
  0
VERTEX
  5
2D4
  8
FINAL_PROJECT_CHASSIS_2_V1
 10
-283.0908
 20
422.317
 30
0.0
  0
SEQEND
  5
5FD
  8
FINAL_PROJECT_CHASSIS_2_V1
  0
POLYLINE
  5
B5
  8
FINAL_PROJECT_CHASSIS_2_V1
 66
     1
 10
0.0
 20
0.0
 30
0.0
  0
VERTEX
  5
2D5
  8
FINAL_PROJECT_CHASSIS_2_V1
 10
-98.0908
 20
-60.683
 30
0.0
  0
VERTEX
  5
2D6
  8
FINAL_PROJECT_CHASSIS_2_V1
 10
-98.0908
 20
-49.132
 30
0.0
  0
SEQEND
  5
5FE
  8
FINAL_PROJECT_CHASSIS_2_V1
  0
POLYLINE
  5
B6
  8
FINAL_PROJECT_CHASSIS_2_V1
 66
     1
 10
0.0
 20
0.0
 30
0.0
  0
VERTEX
  5
2D7
  8
FINAL_PROJECT_CHASSIS_2_V1
 10
-483.0908
 20
-42.683
 30
0.0
  0
VERTEX
  5
2D8
  8
FINAL_PROJECT_CHASSIS_2_V1
 10
-483.0908
 20
387.317
 30
0.0
  0
SEQEND
  5
5FF
  8
FINAL_PROJECT_CHASSIS_2_V1
  0
POLYLINE
  5
B7
  8
FINAL_PROJECT_CHASSIS_2_V1
 66
     1
 10
0.0
 20
0.0
 30
0.0
  0
VERTEX
  5
2D9
  8
FINAL_PROJECT_CHASSIS_2_V1
 10
-283.0908
 20
407.317
 30
0.0
  0
VERTEX
  5
2DA
  8
FINAL_PROJECT_CHASSIS_2_V1
 10
-233.0908
 20
407.317
 30
0.0
  0
SEQEND
  5
600
  8
FINAL_PROJECT_CHASSIS_2_V1
  0
POLYLINE
  5
B8
  8
FINAL_PROJECT_CHASSIS_2_V1
 66
     1
 10
0.0
 20
0.0
 30
0.0
  0
VERTEX
  5
2DB
  8
FINAL_PROJECT_CHASSIS_2_V1
 10
-233.0908
 20
407.317
 30
0.0
  0
VERTEX
  5
2DC
  8
FINAL_PROJECT_CHASSIS_2_V1
 10
-233.0908
 20
422.317
 30
0.0
  0
SEQEND
  5
601
  8
FINAL_PROJECT_CHASSIS_2_V1
  0
POLYLINE
  5
B9
  8
FINAL_PROJECT_CHASSIS_2_V1
 66
     1
 10
0.0
 20
0.0
 30
0.0
  0
VERTEX
  5
2DD
  8
FINAL_PROJECT_CHASSIS_2_V1
 10
-143.0908
 20
407.317
 30
0.0
  0
VERTEX
  5
2DE
  8
FINAL_PROJECT_CHASSIS_2_V1
 10
-53.0908
 20
407.317
 30
0.0
  0
SEQEND
  5
602
  8
FINAL_PROJECT_CHASSIS_2_V1
  0
POLYLINE
  5
BA
  8
FINAL_PROJECT_CHASSIS_2_V1
 66
     1
 10
0.0
 20
0.0
 30
0.0
  0
VERTEX
  5
2DF
  8
FINAL_PROJECT_CHASSIS_2_V1
 10
-115.1841
 20
800.9344
 30
0.0
  0
VERTEX
  5
2E0
  8
FINAL_PROJECT_CHASSIS_2_V1
 10
-115.1841
 20
575.9344
 30
0.0
  0
SEQEND
  5
603
  8
FINAL_PROJECT_CHASSIS_2_V1
  0
POLYLINE
  5
BB
  8
FINAL_PROJECT_CHASSIS_2_V1
 66
     1
 10
0.0
 20
0.0
 30
0.0
  0
VERTEX
  5
2E1
  8
FINAL_PROJECT_CHASSIS_2_V1
 10
-465.1841
 20
572.7944
 30
0.0
  0
VERTEX
  5
2E2
  8
FINAL_PROJECT_CHASSIS_2_V1
 10
-500.1841
 20
572.7944
 30
0.0
  0
SEQEND
  5
604
  8
FINAL_PROJECT_CHASSIS_2_V1
  0
POLYLINE
  5
BC
  8
FINAL_PROJECT_CHASSIS_2_V1
 66
     1
 10
0.0
 20
0.0
 30
0.0
  0
VERTEX
  5
2E3
  8
FINAL_PROJECT_CHASSIS_2_V1
 10
-420.1841
 20
557.7944
 30
0.0
  0
VERTEX
  5
2E4
  8
FINAL_PROJECT_CHASSIS_2_V1
 10
-435.1841
 20
557.7944
 30
0.0
  0
SEQEND
  5
605
  8
FINAL_PROJECT_CHASSIS_2_V1
  0
POLYLINE
  5
BD
  8
FINAL_PROJECT_CHASSIS_2_V1
 66
     1
 10
0.0
 20
0.0
 30
0.0
  0
VERTEX
  5
2E5
  8
FINAL_PROJECT_CHASSIS_2_V1
 10
-480.1841
 20
1022.7944
 30
0.0
  0
VERTEX
  5
2E6
  8
FINAL_PROJECT_CHASSIS_2_V1
 10
-390.1841
 20
1022.7944
 30
0.0
  0
SEQEND
  5
606
  8
FINAL_PROJECT_CHASSIS_2_V1
  0
POLYLINE
  5
BE
  8
FINAL_PROJECT_CHASSIS_2_V1
 66
     1
 10
0.0
 20
0.0
 30
0.0
  0
VERTEX
  5
2E7
  8
FINAL_PROJECT_CHASSIS_2_V1
 10
-435.1841
 20
572.8094
 30
0.0
  0
VERTEX
  5
2E8
  8
FINAL_PROJECT_CHASSIS_2_V1
 10
-435.1841
 20
797.7944
 30
0.0
  0
SEQEND
  5
607
  8
FINAL_PROJECT_CHASSIS_2_V1
  0
POLYLINE
  5
BF
  8
FINAL_PROJECT_CHASSIS_2_V1
 66
     1
 10
0.0
 20
0.0
 30
0.0
  0
VERTEX
  5
2E9
  8
FINAL_PROJECT_CHASSIS_2_V1
 10
-163.1446
 20
-590.7154
 30
0.0
  0
VERTEX
  5
2EA
  8
FINAL_PROJECT_CHASSIS_2_V1
 10
-253.1446
 20
-590.7154
 30
0.0
  0
SEQEND
  5
608
  8
FINAL_PROJECT_CHASSIS_2_V1
  0
POLYLINE
  5
C0
  8
FINAL_PROJECT_CHASSIS_2_V1
 66
     1
 10
0.0
 20
0.0
 30
0.0
  0
VERTEX
  5
2EB
  8
FINAL_PROJECT_CHASSIS_2_V1
 10
-303.1446
 20
-255.7154
 30
0.0
  0
VERTEX
  5
2EC
  8
FINAL_PROJECT_CHASSIS_2_V1
 10
-393.1446
 20
-255.7154
 30
0.0
  0
SEQEND
  5
609
  8
FINAL_PROJECT_CHASSIS_2_V1
  0
POLYLINE
  5
C1
  8
FINAL_PROJECT_CHASSIS_2_V1
 66
     1
 10
0.0
 20
0.0
 30
0.0
  0
VERTEX
  5
2ED
  8
FINAL_PROJECT_CHASSIS_2_V1
 10
-393.1446
 20
-575.7154
 30
0.0
  0
VERTEX
  5
2EE
  8
FINAL_PROJECT_CHASSIS_2_V1
 10
-303.1446
 20
-575.7154
 30
0.0
  0
SEQEND
  5
60A
  8
FINAL_PROJECT_CHASSIS_2_V1
  0
POLYLINE
  5
C2
  8
FINAL_PROJECT_CHASSIS_2_V1
 66
     1
 10
0.0
 20
0.0
 30
0.0
  0
VERTEX
  5
2EF
  8
FINAL_PROJECT_CHASSIS_2_V1
 10
-50.1841
 20
572.7944
 30
0.0
  0
VERTEX
  5
2F0
  8
FINAL_PROJECT_CHASSIS_2_V1
 10
-85.1841
 20
572.7944
 30
0.0
  0
SEQEND
  5
60B
  8
FINAL_PROJECT_CHASSIS_2_V1
  0
POLYLINE
  5
C3
  8
FINAL_PROJECT_CHASSIS_2_V1
 66
     1
 10
0.0
 20
0.0
 30
0.0
  0
VERTEX
  5
2F1
  8
FINAL_PROJECT_CHASSIS_2_V1
 10
-500.1841
 20
572.7944
 30
0.0
  0
VERTEX
  5
2F2
  8
FINAL_PROJECT_CHASSIS_2_V1
 10
-500.1841
 20
1002.7944
 30
0.0
  0
SEQEND
  5
60C
  8
FINAL_PROJECT_CHASSIS_2_V1
  0
POLYLINE
  5
C4
  8
FINAL_PROJECT_CHASSIS_2_V1
 66
     1
 10
0.0
 20
0.0
 30
0.0
  0
VERTEX
  5
2F3
  8
FINAL_PROJECT_CHASSIS_2_V1
 10
-303.1446
 20
-590.7154
 30
0.0
  0
VERTEX
  5
2F4
  8
FINAL_PROJECT_CHASSIS_2_V1
 10
-393.1446
 20
-590.7154
 30
0.0
  0
SEQEND
  5
60D
  8
FINAL_PROJECT_CHASSIS_2_V1
  0
POLYLINE
  5
C5
  8
FINAL_PROJECT_CHASSIS_2_V1
 66
     1
 10
0.0
 20
0.0
 30
0.0
  0
VERTEX
  5
2F5
  8
FINAL_PROJECT_CHASSIS_2_V1
 10
-435.1841
 20
797.7944
 30
0.0
  0
VERTEX
  5
2F6
  8
FINAL_PROJECT_CHASSIS_2_V1
 10
-450.1841
 20
797.7944
 30
0.0
  0
SEQEND
  5
60E
  8
FINAL_PROJECT_CHASSIS_2_V1
  0
POLYLINE
  5
C6
  8
FINAL_PROJECT_CHASSIS_2_V1
 66
     1
 10
0.0
 20
0.0
 30
0.0
  0
VERTEX
  5
2F7
  8
FINAL_PROJECT_CHASSIS_2_V1
 10
-365.1841
 20
922.7944
 30
0.0
  0
VERTEX
  5
2F8
  8
FINAL_PROJECT_CHASSIS_2_V1
 10
-367.1611
 20
922.6965
 30
0.0
  0
VERTEX
  5
2F9
  8
FINAL_PROJECT_CHASSIS_2_V1
 10
-369.1045
 20
922.4066
 30
0.0
  0
VERTEX
  5
2FA
  8
FINAL_PROJECT_CHASSIS_2_V1
 10
-371.0012
 20
921.9299
 30
0.0
  0
VERTEX
  5
2FB
  8
FINAL_PROJECT_CHASSIS_2_V1
 10
-372.8382
 20
921.272
 30
0.0
  0
VERTEX
  5
2FC
  8
FINAL_PROJECT_CHASSIS_2_V1
 10
-374.6023
 20
920.4383
 30
0.0
  0
VERTEX
  5
2FD
  8
FINAL_PROJECT_CHASSIS_2_V1
 10
-376.2804
 20
919.4342
 30
0.0
  0
VERTEX
  5
2FE
  8
FINAL_PROJECT_CHASSIS_2_V1
 10
-377.8594
 20
918.2651
 30
0.0
  0
VERTEX
  5
2FF
  8
FINAL_PROJECT_CHASSIS_2_V1
 10
-379.3261
 20
916.9364
 30
0.0
  0
VERTEX
  5
300
  8
FINAL_PROJECT_CHASSIS_2_V1
 10
-380.6548
 20
915.4693
 30
0.0
  0
VERTEX
  5
301
  8
FINAL_PROJECT_CHASSIS_2_V1
 10
-381.8239
 20
913.8901
 30
0.0
  0
VERTEX
  5
302
  8
FINAL_PROJECT_CHASSIS_2_V1
 10
-382.828
 20
912.2119
 30
0.0
  0
VERTEX
  5
303
  8
FINAL_PROJECT_CHASSIS_2_V1
 10
-383.6617
 20
910.4478
 30
0.0
  0
VERTEX
  5
304
  8
FINAL_PROJECT_CHASSIS_2_V1
 10
-384.3196
 20
908.6108
 30
0.0
  0
VERTEX
  5
305
  8
FINAL_PROJECT_CHASSIS_2_V1
 10
-384.7963
 20
906.7142
 30
0.0
  0
VERTEX
  5
306
  8
FINAL_PROJECT_CHASSIS_2_V1
 10
-385.0862
 20
904.771
 30
0.0
  0
VERTEX
  5
307
  8
FINAL_PROJECT_CHASSIS_2_V1
 10
-385.1841
 20
902.7944
 30
0.0
  0
SEQEND
  5
60F
  8
FINAL_PROJECT_CHASSIS_2_V1
  0
POLYLINE
  5
C7
  8
FINAL_PROJECT_CHASSIS_2_V1
 66
     1
 10
0.0
 20
0.0
 30
0.0
  0
VERTEX
  5
308
  8
FINAL_PROJECT_CHASSIS_2_V1
 10
-250.1841
 20
1022.7944
 30
0.0
  0
VERTEX
  5
309
  8
FINAL_PROJECT_CHASSIS_2_V1
 10
-250.1841
 20
1040.7944
 30
0.0
  0
SEQEND
  5
610
  8
FINAL_PROJECT_CHASSIS_2_V1
  0
POLYLINE
  5
C8
  8
FINAL_PROJECT_CHASSIS_2_V1
 66
     1
 10
0.0
 20
0.0
 30
0.0
  0
VERTEX
  5
30A
  8
FINAL_PROJECT_CHASSIS_2_V1
 10
-100.1841
 20
800.9344
 30
0.0
  0
VERTEX
  5
30B
  8
FINAL_PROJECT_CHASSIS_2_V1
 10
-115.1841
 20
800.9344
 30
0.0
  0
SEQEND
  5
611
  8
FINAL_PROJECT_CHASSIS_2_V1
  0
POLYLINE
  5
C9
  8
FINAL_PROJECT_CHASSIS_2_V1
 66
     1
 10
0.0
 20
0.0
 30
0.0
  0
VERTEX
  5
30C
  8
FINAL_PROJECT_CHASSIS_2_V1
 10
-480.1841
 20
1022.7944
 30
0.0
  0
VERTEX
  5
30D
  8
FINAL_PROJECT_CHASSIS_2_V1
 10
-482.1611
 20
1022.6965
 30
0.0
  0
VERTEX
  5
30E
  8
FINAL_PROJECT_CHASSIS_2_V1
 10
-484.1045
 20
1022.4066
 30
0.0
  0
VERTEX
  5
30F
  8
FINAL_PROJECT_CHASSIS_2_V1
 10
-486.0012
 20
1021.9299
 30
0.0
  0
VERTEX
  5
310
  8
FINAL_PROJECT_CHASSIS_2_V1
 10
-487.8382
 20
1021.272
 30
0.0
  0
VERTEX
  5
311
  8
FINAL_PROJECT_CHASSIS_2_V1
 10
-489.6023
 20
1020.4383
 30
0.0
  0
VERTEX
  5
312
  8
FINAL_PROJECT_CHASSIS_2_V1
 10
-491.2804
 20
1019.4342
 30
0.0
  0
VERTEX
  5
313
  8
FINAL_PROJECT_CHASSIS_2_V1
 10
-492.8594
 20
1018.2651
 30
0.0
  0
VERTEX
  5
314
  8
FINAL_PROJECT_CHASSIS_2_V1
 10
-494.3261
 20
1016.9364
 30
0.0
  0
VERTEX
  5
315
  8
FINAL_PROJECT_CHASSIS_2_V1
 10
-495.6548
 20
1015.4693
 30
0.0
  0
VERTEX
  5
316
  8
FINAL_PROJECT_CHASSIS_2_V1
 10
-496.8239
 20
1013.8901
 30
0.0
  0
VERTEX
  5
317
  8
FINAL_PROJECT_CHASSIS_2_V1
 10
-497.828
 20
1012.2119
 30
0.0
  0
VERTEX
  5
318
  8
FINAL_PROJECT_CHASSIS_2_V1
 10
-498.6617
 20
1010.4478
 30
0.0
  0
VERTEX
  5
319
  8
FINAL_PROJECT_CHASSIS_2_V1
 10
-499.3196
 20
1008.6108
 30
0.0
  0
VERTEX
  5
31A
  8
FINAL_PROJECT_CHASSIS_2_V1
 10
-499.7963
 20
1006.7142
 30
0.0
  0
VERTEX
  5
31B
  8
FINAL_PROJECT_CHASSIS_2_V1
 10
-500.0862
 20
1004.771
 30
0.0
  0
VERTEX
  5
31C
  8
FINAL_PROJECT_CHASSIS_2_V1
 10
-500.1841
 20
1002.7944
 30
0.0
  0
SEQEND
  5
612
  8
FINAL_PROJECT_CHASSIS_2_V1
  0
POLYLINE
  5
CA
  8
FINAL_PROJECT_CHASSIS_2_V1
 66
     1
 10
0.0
 20
0.0
 30
0.0
  0
VERTEX
  5
31D
  8
FINAL_PROJECT_CHASSIS_2_V1
 10
-115.1841
 20
557.7944
 30
0.0
  0
VERTEX
  5
31E
  8
FINAL_PROJECT_CHASSIS_2_V1
 10
-115.1841
 20
575.9344
 30
0.0
  0
SEQEND
  5
613
  8
FINAL_PROJECT_CHASSIS_2_V1
  0
POLYLINE
  5
CB
  8
FINAL_PROJECT_CHASSIS_2_V1
 66
     1
 10
0.0
 20
0.0
 30
0.0
  0
VERTEX
  5
31F
  8
FINAL_PROJECT_CHASSIS_2_V1
 10
-385.1841
 20
572.7944
 30
0.0
  0
VERTEX
  5
320
  8
FINAL_PROJECT_CHASSIS_2_V1
 10
-420.1841
 20
572.7944
 30
0.0
  0
SEQEND
  5
614
  8
FINAL_PROJECT_CHASSIS_2_V1
  0
POLYLINE
  5
CC
  8
FINAL_PROJECT_CHASSIS_2_V1
 66
     1
 10
0.0
 20
0.0
 30
0.0
  0
VERTEX
  5
321
  8
FINAL_PROJECT_CHASSIS_2_V1
 10
-390.1841
 20
1022.7944
 30
0.0
  0
VERTEX
  5
322
  8
FINAL_PROJECT_CHASSIS_2_V1
 10
-390.1841
 20
1040.7944
 30
0.0
  0
SEQEND
  5
615
  8
FINAL_PROJECT_CHASSIS_2_V1
  0
POLYLINE
  5
CD
  8
FINAL_PROJECT_CHASSIS_2_V1
 66
     1
 10
0.0
 20
0.0
 30
0.0
  0
VERTEX
  5
323
  8
FINAL_PROJECT_CHASSIS_2_V1
 10
-85.1841
 20
557.7944
 30
0.0
  0
VERTEX
  5
324
  8
FINAL_PROJECT_CHASSIS_2_V1
 10
-100.1841
 20
557.7944
 30
0.0
  0
SEQEND
  5
616
  8
FINAL_PROJECT_CHASSIS_2_V1
  0
POLYLINE
  5
CE
  8
FINAL_PROJECT_CHASSIS_2_V1
 66
     1
 10
0.0
 20
0.0
 30
0.0
  0
VERTEX
  5
325
  8
FINAL_PROJECT_CHASSIS_2_V1
 10
-300.1841
 20
1040.7944
 30
0.0
  0
VERTEX
  5
326
  8
FINAL_PROJECT_CHASSIS_2_V1
 10
-300.1841
 20
1022.7944
 30
0.0
  0
SEQEND
  5
617
  8
FINAL_PROJECT_CHASSIS_2_V1
  0
POLYLINE
  5
CF
  8
FINAL_PROJECT_CHASSIS_2_V1
 66
     1
 10
0.0
 20
0.0
 30
0.0
  0
VERTEX
  5
327
  8
FINAL_PROJECT_CHASSIS_2_V1
 10
-465.1841
 20
557.7944
 30
0.0
  0
VERTEX
  5
328
  8
FINAL_PROJECT_CHASSIS_2_V1
 10
-450.1841
 20
557.7944
 30
0.0
  0
SEQEND
  5
618
  8
FINAL_PROJECT_CHASSIS_2_V1
  0
POLYLINE
  5
D0
  8
FINAL_PROJECT_CHASSIS_2_V1
 66
     1
 10
0.0
 20
0.0
 30
0.0
  0
VERTEX
  5
329
  8
FINAL_PROJECT_CHASSIS_2_V1
 10
-130.1841
 20
572.7944
 30
0.0
  0
VERTEX
  5
32A
  8
FINAL_PROJECT_CHASSIS_2_V1
 10
-130.1841
 20
557.7944
 30
0.0
  0
SEQEND
  5
619
  8
FINAL_PROJECT_CHASSIS_2_V1
  0
POLYLINE
  5
D1
  8
FINAL_PROJECT_CHASSIS_2_V1
 66
     1
 10
0.0
 20
0.0
 30
0.0
  0
VERTEX
  5
32B
  8
FINAL_PROJECT_CHASSIS_2_V1
 10
-250.1841
 20
1040.7944
 30
0.0
  0
VERTEX
  5
32C
  8
FINAL_PROJECT_CHASSIS_2_V1
 10
-160.1841
 20
1040.7944
 30
0.0
  0
SEQEND
  5
61A
  8
FINAL_PROJECT_CHASSIS_2_V1
  0
POLYLINE
  5
D2
  8
FINAL_PROJECT_CHASSIS_2_V1
 66
     1
 10
0.0
 20
0.0
 30
0.0
  0
VERTEX
  5
32D
  8
FINAL_PROJECT_CHASSIS_2_V1
 10
472.0158
 20
555.6345
 30
0.0
  0
VERTEX
  5
32E
  8
FINAL_PROJECT_CHASSIS_2_V1
 10
472.0158
 20
563.2345
 30
0.0
  0
SEQEND
  5
61B
  8
FINAL_PROJECT_CHASSIS_2_V1
  0
POLYLINE
  5
D3
  8
FINAL_PROJECT_CHASSIS_2_V1
 66
     1
 10
0.0
 20
0.0
 30
0.0
  0
VERTEX
  5
32F
  8
FINAL_PROJECT_CHASSIS_2_V1
 10
-130.1841
 20
557.7944
 30
0.0
  0
VERTEX
  5
330
  8
FINAL_PROJECT_CHASSIS_2_V1
 10
-115.1841
 20
557.7944
 30
0.0
  0
SEQEND
  5
61C
  8
FINAL_PROJECT_CHASSIS_2_V1
  0
POLYLINE
  5
D4
  8
FINAL_PROJECT_CHASSIS_2_V1
 66
     1
 10
0.0
 20
0.0
 30
0.0
  0
VERTEX
  5
331
  8
FINAL_PROJECT_CHASSIS_2_V1
 10
-50.1841
 20
1002.7944
 30
0.0
  0
VERTEX
  5
332
  8
FINAL_PROJECT_CHASSIS_2_V1
 10
-50.1841
 20
572.7944
 30
0.0
  0
SEQEND
  5
61D
  8
FINAL_PROJECT_CHASSIS_2_V1
  0
POLYLINE
  5
D5
  8
FINAL_PROJECT_CHASSIS_2_V1
 66
     1
 10
0.0
 20
0.0
 30
0.0
  0
VERTEX
  5
333
  8
FINAL_PROJECT_CHASSIS_2_V1
 10
182.0158
 20
1020.6345
 30
0.0
  0
VERTEX
  5
334
  8
FINAL_PROJECT_CHASSIS_2_V1
 10
182.0158
 20
1038.6345
 30
0.0
  0
SEQEND
  5
61E
  8
FINAL_PROJECT_CHASSIS_2_V1
  0
POLYLINE
  5
D6
  8
FINAL_PROJECT_CHASSIS_2_V1
 66
     1
 10
0.0
 20
0.0
 30
0.0
  0
VERTEX
  5
335
  8
FINAL_PROJECT_CHASSIS_2_V1
 10
92.0158
 20
1020.6345
 30
0.0
  0
VERTEX
  5
336
  8
FINAL_PROJECT_CHASSIS_2_V1
 10
90.0388
 20
1020.5366
 30
0.0
  0
VERTEX
  5
337
  8
FINAL_PROJECT_CHASSIS_2_V1
 10
88.0954
 20
1020.2467
 30
0.0
  0
VERTEX
  5
338
  8
FINAL_PROJECT_CHASSIS_2_V1
 10
86.1987
 20
1019.77
 30
0.0
  0
VERTEX
  5
339
  8
FINAL_PROJECT_CHASSIS_2_V1
 10
84.3617
 20
1019.1121
 30
0.0
  0
VERTEX
  5
33A
  8
FINAL_PROJECT_CHASSIS_2_V1
 10
82.5976
 20
1018.2784
 30
0.0
  0
VERTEX
  5
33B
  8
FINAL_PROJECT_CHASSIS_2_V1
 10
80.9195
 20
1017.2743
 30
0.0
  0
VERTEX
  5
33C
  8
FINAL_PROJECT_CHASSIS_2_V1
 10
79.3405
 20
1016.1052
 30
0.0
  0
VERTEX
  5
33D
  8
FINAL_PROJECT_CHASSIS_2_V1
 10
77.8738
 20
1014.7765
 30
0.0
  0
VERTEX
  5
33E
  8
FINAL_PROJECT_CHASSIS_2_V1
 10
76.5451
 20
1013.3094
 30
0.0
  0
VERTEX
  5
33F
  8
FINAL_PROJECT_CHASSIS_2_V1
 10
75.376
 20
1011.7302
 30
0.0
  0
VERTEX
  5
340
  8
FINAL_PROJECT_CHASSIS_2_V1
 10
74.3719
 20
1010.052
 30
0.0
  0
VERTEX
  5
341
  8
FINAL_PROJECT_CHASSIS_2_V1
 10
73.5382
 20
1008.2879
 30
0.0
  0
VERTEX
  5
342
  8
FINAL_PROJECT_CHASSIS_2_V1
 10
72.8803
 20
1006.4509
 30
0.0
  0
VERTEX
  5
343
  8
FINAL_PROJECT_CHASSIS_2_V1
 10
72.4036
 20
1004.5543
 30
0.0
  0
VERTEX
  5
344
  8
FINAL_PROJECT_CHASSIS_2_V1
 10
72.1137
 20
1002.6111
 30
0.0
  0
VERTEX
  5
345
  8
FINAL_PROJECT_CHASSIS_2_V1
 10
72.0158
 20
1000.6345
 30
0.0
  0
SEQEND
  5
61F
  8
FINAL_PROJECT_CHASSIS_2_V1
  0
POLYLINE
  5
D7
  8
FINAL_PROJECT_CHASSIS_2_V1
 66
     1
 10
0.0
 20
0.0
 30
0.0
  0
VERTEX
  5
346
  8
FINAL_PROJECT_CHASSIS_2_V1
 10
95.4803
 20
-47.3794
 30
0.0
  0
VERTEX
  5
347
  8
FINAL_PROJECT_CHASSIS_2_V1
 10
95.4803
 20
-65.3794
 30
0.0
  0
SEQEND
  5
620
  8
FINAL_PROJECT_CHASSIS_2_V1
  0
POLYLINE
  5
D8
  8
FINAL_PROJECT_CHASSIS_2_V1
 66
     1
 10
0.0
 20
0.0
 30
0.0
  0
VERTEX
  5
348
  8
FINAL_PROJECT_CHASSIS_2_V1
 10
110.4803
 20
-65.3794
 30
0.0
  0
VERTEX
  5
349
  8
FINAL_PROJECT_CHASSIS_2_V1
 10
110.4803
 20
-47.3794
 30
0.0
  0
SEQEND
  5
621
  8
FINAL_PROJECT_CHASSIS_2_V1
  0
POLYLINE
  5
D9
  8
FINAL_PROJECT_CHASSIS_2_V1
 66
     1
 10
0.0
 20
0.0
 30
0.0
  0
VERTEX
  5
34A
  8
FINAL_PROJECT_CHASSIS_2_V1
 10
-390.1841
 20
1040.7944
 30
0.0
  0
VERTEX
  5
34B
  8
FINAL_PROJECT_CHASSIS_2_V1
 10
-300.1841
 20
1040.7944
 30
0.0
  0
SEQEND
  5
622
  8
FINAL_PROJECT_CHASSIS_2_V1
  0
POLYLINE
  5
DA
  8
FINAL_PROJECT_CHASSIS_2_V1
 66
     1
 10
0.0
 20
0.0
 30
0.0
  0
VERTEX
  5
34C
  8
FINAL_PROJECT_CHASSIS_2_V1
 10
175.4803
 20
-47.3794
 30
0.0
  0
VERTEX
  5
34D
  8
FINAL_PROJECT_CHASSIS_2_V1
 10
140.4803
 20
-47.3794
 30
0.0
  0
SEQEND
  5
623
  8
FINAL_PROJECT_CHASSIS_2_V1
  0
POLYLINE
  5
DB
  8
FINAL_PROJECT_CHASSIS_2_V1
 66
     1
 10
0.0
 20
0.0
 30
0.0
  0
VERTEX
  5
34E
  8
FINAL_PROJECT_CHASSIS_2_V1
 10
442.0158
 20
570.6345
 30
0.0
  0
VERTEX
  5
34F
  8
FINAL_PROJECT_CHASSIS_2_V1
 10
407.0158
 20
570.6345
 30
0.0
  0
SEQEND
  5
624
  8
FINAL_PROJECT_CHASSIS_2_V1
  0
POLYLINE
  5
DC
  8
FINAL_PROJECT_CHASSIS_2_V1
 66
     1
 10
0.0
 20
0.0
 30
0.0
  0
VERTEX
  5
350
  8
FINAL_PROJECT_CHASSIS_2_V1
 10
137.0158
 20
570.6495
 30
0.0
  0
VERTEX
  5
351
  8
FINAL_PROJECT_CHASSIS_2_V1
 10
137.0158
 20
795.6345
 30
0.0
  0
SEQEND
  5
625
  8
FINAL_PROJECT_CHASSIS_2_V1
  0
POLYLINE
  5
DD
  8
FINAL_PROJECT_CHASSIS_2_V1
 66
     1
 10
0.0
 20
0.0
 30
0.0
  0
VERTEX
  5
352
  8
FINAL_PROJECT_CHASSIS_2_V1
 10
-420.1841
 20
572.7944
 30
0.0
  0
VERTEX
  5
353
  8
FINAL_PROJECT_CHASSIS_2_V1
 10
-420.1841
 20
557.7944
 30
0.0
  0
SEQEND
  5
626
  8
FINAL_PROJECT_CHASSIS_2_V1
  0
POLYLINE
  5
DE
  8
FINAL_PROJECT_CHASSIS_2_V1
 66
     1
 10
0.0
 20
0.0
 30
0.0
  0
VERTEX
  5
354
  8
FINAL_PROJECT_CHASSIS_2_V1
 10
207.0158
 20
920.6345
 30
0.0
  0
VERTEX
  5
355
  8
FINAL_PROJECT_CHASSIS_2_V1
 10
387.0158
 20
920.6345
 30
0.0
  0
SEQEND
  5
627
  8
FINAL_PROJECT_CHASSIS_2_V1
  0
POLYLINE
  5
DF
  8
FINAL_PROJECT_CHASSIS_2_V1
 66
     1
 10
0.0
 20
0.0
 30
0.0
  0
VERTEX
  5
356
  8
FINAL_PROJECT_CHASSIS_2_V1
 10
407.0158
 20
900.6345
 30
0.0
  0
VERTEX
  5
357
  8
FINAL_PROJECT_CHASSIS_2_V1
 10
407.0158
 20
570.6345
 30
0.0
  0
SEQEND
  5
628
  8
FINAL_PROJECT_CHASSIS_2_V1
  0
POLYLINE
  5
E0
  8
FINAL_PROJECT_CHASSIS_2_V1
 66
     1
 10
0.0
 20
0.0
 30
0.0
  0
VERTEX
  5
358
  8
FINAL_PROJECT_CHASSIS_2_V1
 10
-365.1841
 20
922.7944
 30
0.0
  0
VERTEX
  5
359
  8
FINAL_PROJECT_CHASSIS_2_V1
 10
-185.1841
 20
922.7944
 30
0.0
  0
SEQEND
  5
629
  8
FINAL_PROJECT_CHASSIS_2_V1
  0
POLYLINE
  5
E1
  8
FINAL_PROJECT_CHASSIS_2_V1
 66
     1
 10
0.0
 20
0.0
 30
0.0
  0
VERTEX
  5
35A
  8
FINAL_PROJECT_CHASSIS_2_V1
 10
-85.1841
 20
572.7944
 30
0.0
  0
VERTEX
  5
35B
  8
FINAL_PROJECT_CHASSIS_2_V1
 10
-85.1841
 20
557.7944
 30
0.0
  0
SEQEND
  5
62A
  8
FINAL_PROJECT_CHASSIS_2_V1
  0
POLYLINE
  5
E2
  8
FINAL_PROJECT_CHASSIS_2_V1
 66
     1
 10
0.0
 20
0.0
 30
0.0
  0
VERTEX
  5
35C
  8
FINAL_PROJECT_CHASSIS_2_V1
 10
-453.1446
 20
-255.7154
 30
0.0
  0
VERTEX
  5
35D
  8
FINAL_PROJECT_CHASSIS_2_V1
 10
-438.1446
 20
-255.7154
 30
0.0
  0
SEQEND
  5
62B
  8
FINAL_PROJECT_CHASSIS_2_V1
  0
POLYLINE
  5
E3
  8
FINAL_PROJECT_CHASSIS_2_V1
 66
     1
 10
0.0
 20
0.0
 30
0.0
  0
VERTEX
  5
35E
  8
FINAL_PROJECT_CHASSIS_2_V1
 10
170.4803
 20
402.6206
 30
0.0
  0
VERTEX
  5
35F
  8
FINAL_PROJECT_CHASSIS_2_V1
 10
170.4803
 20
417.6206
 30
0.0
  0
SEQEND
  5
62C
  8
FINAL_PROJECT_CHASSIS_2_V1
  0
POLYLINE
  5
E4
  8
FINAL_PROJECT_CHASSIS_2_V1
 66
     1
 10
0.0
 20
0.0
 30
0.0
  0
VERTEX
  5
360
  8
FINAL_PROJECT_CHASSIS_2_V1
 10
487.0158
 20
570.6345
 30
0.0
  0
VERTEX
  5
361
  8
FINAL_PROJECT_CHASSIS_2_V1
 10
487.0158
 20
555.6345
 30
0.0
  0
SEQEND
  5
62D
  8
FINAL_PROJECT_CHASSIS_2_V1
  0
POLYLINE
  5
E5
  8
FINAL_PROJECT_CHASSIS_2_V1
 66
     1
 10
0.0
 20
0.0
 30
0.0
  0
VERTEX
  5
362
  8
FINAL_PROJECT_CHASSIS_2_V1
 10
-450.1841
 20
557.7944
 30
0.0
  0
VERTEX
  5
363
  8
FINAL_PROJECT_CHASSIS_2_V1
 10
-450.1841
 20
572.7944
 30
0.0
  0
SEQEND
  5
62E
  8
FINAL_PROJECT_CHASSIS_2_V1
  0
POLYLINE
  5
E6
  8
FINAL_PROJECT_CHASSIS_2_V1
 66
     1
 10
0.0
 20
0.0
 30
0.0
  0
VERTEX
  5
364
  8
FINAL_PROJECT_CHASSIS_2_V1
 10
-100.1841
 20
575.9344
 30
0.0
  0
VERTEX
  5
365
  8
FINAL_PROJECT_CHASSIS_2_V1
 10
-100.1841
 20
800.9344
 30
0.0
  0
SEQEND
  5
62F
  8
FINAL_PROJECT_CHASSIS_2_V1
  0
POLYLINE
  5
E7
  8
FINAL_PROJECT_CHASSIS_2_V1
 66
     1
 10
0.0
 20
0.0
 30
0.0
  0
VERTEX
  5
366
  8
FINAL_PROJECT_CHASSIS_2_V1
 10
-100.1841
 20
557.7944
 30
0.0
  0
VERTEX
  5
367
  8
FINAL_PROJECT_CHASSIS_2_V1
 10
-100.1841
 20
575.9344
 30
0.0
  0
SEQEND
  5
630
  8
FINAL_PROJECT_CHASSIS_2_V1
  0
POLYLINE
  5
E8
  8
FINAL_PROJECT_CHASSIS_2_V1
 66
     1
 10
0.0
 20
0.0
 30
0.0
  0
VERTEX
  5
368
  8
FINAL_PROJECT_CHASSIS_2_V1
 10
472.0158
 20
795.6345
 30
0.0
  0
VERTEX
  5
369
  8
FINAL_PROJECT_CHASSIS_2_V1
 10
457.0158
 20
795.6345
 30
0.0
  0
SEQEND
  5
631
  8
FINAL_PROJECT_CHASSIS_2_V1
  0
POLYLINE
  5
E9
  8
FINAL_PROJECT_CHASSIS_2_V1
 66
     1
 10
0.0
 20
0.0
 30
0.0
  0
VERTEX
  5
36A
  8
FINAL_PROJECT_CHASSIS_2_V1
 10
457.0158
 20
555.6345
 30
0.0
  0
VERTEX
  5
36B
  8
FINAL_PROJECT_CHASSIS_2_V1
 10
457.0158
 20
563.2345
 30
0.0
  0
SEQEND
  5
632
  8
FINAL_PROJECT_CHASSIS_2_V1
  0
POLYLINE
  5
EA
  8
FINAL_PROJECT_CHASSIS_2_V1
 66
     1
 10
0.0
 20
0.0
 30
0.0
  0
VERTEX
  5
36C
  8
FINAL_PROJECT_CHASSIS_2_V1
 10
-450.1841
 20
797.7944
 30
0.0
  0
VERTEX
  5
36D
  8
FINAL_PROJECT_CHASSIS_2_V1
 10
-450.1841
 20
572.7944
 30
0.0
  0
SEQEND
  5
633
  8
FINAL_PROJECT_CHASSIS_2_V1
  0
POLYLINE
  5
EB
  8
FINAL_PROJECT_CHASSIS_2_V1
 66
     1
 10
0.0
 20
0.0
 30
0.0
  0
VERTEX
  5
36E
  8
FINAL_PROJECT_CHASSIS_2_V1
 10
457.0158
 20
795.6345
 30
0.0
  0
VERTEX
  5
36F
  8
FINAL_PROJECT_CHASSIS_2_V1
 10
457.0158
 20
563.2345
 30
0.0
  0
SEQEND
  5
634
  8
FINAL_PROJECT_CHASSIS_2_V1
  0
POLYLINE
  5
EC
  8
FINAL_PROJECT_CHASSIS_2_V1
 66
     1
 10
0.0
 20
0.0
 30
0.0
  0
VERTEX
  5
370
  8
FINAL_PROJECT_CHASSIS_2_V1
 10
170.4803
 20
417.6206
 30
0.0
  0
VERTEX
  5
371
  8
FINAL_PROJECT_CHASSIS_2_V1
 10
260.4803
 20
417.6206
 30
0.0
  0
SEQEND
  5
635
  8
FINAL_PROJECT_CHASSIS_2_V1
  0
POLYLINE
  5
ED
  8
FINAL_PROJECT_CHASSIS_2_V1
 66
     1
 10
0.0
 20
0.0
 30
0.0
  0
VERTEX
  5
372
  8
FINAL_PROJECT_CHASSIS_2_V1
 10
-118.1446
 20
-255.7154
 30
0.0
  0
VERTEX
  5
373
  8
FINAL_PROJECT_CHASSIS_2_V1
 10
-103.1446
 20
-255.7154
 30
0.0
  0
SEQEND
  5
636
  8
FINAL_PROJECT_CHASSIS_2_V1
  0
POLYLINE
  5
EE
  8
FINAL_PROJECT_CHASSIS_2_V1
 66
     1
 10
0.0
 20
0.0
 30
0.0
  0
VERTEX
  5
374
  8
FINAL_PROJECT_CHASSIS_2_V1
 10
60.4803
 20
-47.3794
 30
0.0
  0
VERTEX
  5
375
  8
FINAL_PROJECT_CHASSIS_2_V1
 10
60.4803
 20
382.6206
 30
0.0
  0
SEQEND
  5
637
  8
FINAL_PROJECT_CHASSIS_2_V1
  0
POLYLINE
  5
EF
  8
FINAL_PROJECT_CHASSIS_2_V1
 66
     1
 10
0.0
 20
0.0
 30
0.0
  0
VERTEX
  5
376
  8
FINAL_PROJECT_CHASSIS_2_V1
 10
80.4803
 20
402.6206
 30
0.0
  0
VERTEX
  5
377
  8
FINAL_PROJECT_CHASSIS_2_V1
 10
170.4803
 20
402.6206
 30
0.0
  0
SEQEND
  5
638
  8
FINAL_PROJECT_CHASSIS_2_V1
  0
POLYLINE
  5
F0
  8
FINAL_PROJECT_CHASSIS_2_V1
 66
     1
 10
0.0
 20
0.0
 30
0.0
  0
VERTEX
  5
378
  8
FINAL_PROJECT_CHASSIS_2_V1
 10
-435.1841
 20
557.7944
 30
0.0
  0
VERTEX
  5
379
  8
FINAL_PROJECT_CHASSIS_2_V1
 10
-435.1841
 20
572.8094
 30
0.0
  0
SEQEND
  5
639
  8
FINAL_PROJECT_CHASSIS_2_V1
  0
POLYLINE
  5
F1
  8
FINAL_PROJECT_CHASSIS_2_V1
 66
     1
 10
0.0
 20
0.0
 30
0.0
  0
VERTEX
  5
37A
  8
FINAL_PROJECT_CHASSIS_2_V1
 10
-103.1446
 20
-575.7154
 30
0.0
  0
VERTEX
  5
37B
  8
FINAL_PROJECT_CHASSIS_2_V1
 10
-118.1446
 20
-575.7154
 30
0.0
  0
SEQEND
  5
63A
  8
FINAL_PROJECT_CHASSIS_2_V1
  0
POLYLINE
  5
F2
  8
FINAL_PROJECT_CHASSIS_2_V1
 66
     1
 10
0.0
 20
0.0
 30
0.0
  0
VERTEX
  5
37C
  8
FINAL_PROJECT_CHASSIS_2_V1
 10
522.0158
 20
570.6345
 30
0.0
  0
VERTEX
  5
37D
  8
FINAL_PROJECT_CHASSIS_2_V1
 10
487.0158
 20
570.6345
 30
0.0
  0
SEQEND
  5
63B
  8
FINAL_PROJECT_CHASSIS_2_V1
  0
POLYLINE
  5
F3
  8
FINAL_PROJECT_CHASSIS_2_V1
 66
     1
 10
0.0
 20
0.0
 30
0.0
  0
VERTEX
  5
37E
  8
FINAL_PROJECT_CHASSIS_2_V1
 10
175.4803
 20
282.6206
 30
0.0
  0
VERTEX
  5
37F
  8
FINAL_PROJECT_CHASSIS_2_V1
 10
175.4803
 20
-47.3794
 30
0.0
  0
SEQEND
  5
63C
  8
FINAL_PROJECT_CHASSIS_2_V1
  0
POLYLINE
  5
F4
  8
FINAL_PROJECT_CHASSIS_2_V1
 66
     1
 10
0.0
 20
0.0
 30
0.0
  0
VERTEX
  5
380
  8
FINAL_PROJECT_CHASSIS_2_V1
 10
-300.1841
 20
1022.7944
 30
0.0
  0
VERTEX
  5
381
  8
FINAL_PROJECT_CHASSIS_2_V1
 10
-250.1841
 20
1022.7944
 30
0.0
  0
SEQEND
  5
63D
  8
FINAL_PROJECT_CHASSIS_2_V1
  0
POLYLINE
  5
F5
  8
FINAL_PROJECT_CHASSIS_2_V1
 66
     1
 10
0.0
 20
0.0
 30
0.0
  0
VERTEX
  5
382
  8
FINAL_PROJECT_CHASSIS_2_V1
 10
-50.1841
 20
1002.7944
 30
0.0
  0
VERTEX
  5
383
  8
FINAL_PROJECT_CHASSIS_2_V1
 10
-50.5905
 20
1006.8252
 30
0.0
  0
VERTEX
  5
384
  8
FINAL_PROJECT_CHASSIS_2_V1
 10
-51.7559
 20
1010.5794
 30
0.0
  0
VERTEX
  5
385
  8
FINAL_PROJECT_CHASSIS_2_V1
 10
-53.6
 20
1013.9767
 30
0.0
  0
VERTEX
  5
386
  8
FINAL_PROJECT_CHASSIS_2_V1
 10
-56.0422
 20
1016.9367
 30
0.0
  0
VERTEX
  5
387
  8
FINAL_PROJECT_CHASSIS_2_V1
 10
-59.0022
 20
1019.3788
 30
0.0
  0
VERTEX
  5
388
  8
FINAL_PROJECT_CHASSIS_2_V1
 10
-62.3995
 20
1021.2227
 30
0.0
  0
VERTEX
  5
389
  8
FINAL_PROJECT_CHASSIS_2_V1
 10
-66.1536
 20
1022.3881
 30
0.0
  0
VERTEX
  5
38A
  8
FINAL_PROJECT_CHASSIS_2_V1
 10
-70.1841
 20
1022.7944
 30
0.0
  0
SEQEND
  5
63E
  8
FINAL_PROJECT_CHASSIS_2_V1
  0
POLYLINE
  5
F6
  8
FINAL_PROJECT_CHASSIS_2_V1
 66
     1
 10
0.0
 20
0.0
 30
0.0
  0
VERTEX
  5
38B
  8
FINAL_PROJECT_CHASSIS_2_V1
 10
-160.1841
 20
1040.7944
 30
0.0
  0
VERTEX
  5
38C
  8
FINAL_PROJECT_CHASSIS_2_V1
 10
-160.1841
 20
1022.7944
 30
0.0
  0
SEQEND
  5
63F
  8
FINAL_PROJECT_CHASSIS_2_V1
  0
POLYLINE
  5
F7
  8
FINAL_PROJECT_CHASSIS_2_V1
 66
     1
 10
0.0
 20
0.0
 30
0.0
  0
VERTEX
  5
38D
  8
FINAL_PROJECT_CHASSIS_2_V1
 10
182.0158
 20
1038.6345
 30
0.0
  0
VERTEX
  5
38E
  8
FINAL_PROJECT_CHASSIS_2_V1
 10
272.0158
 20
1038.6345
 30
0.0
  0
SEQEND
  5
640
  8
FINAL_PROJECT_CHASSIS_2_V1
  0
POLYLINE
  5
F8
  8
FINAL_PROJECT_CHASSIS_2_V1
 66
     1
 10
0.0
 20
0.0
 30
0.0
  0
VERTEX
  5
38F
  8
FINAL_PROJECT_CHASSIS_2_V1
 10
80.4803
 20
402.6206
 30
0.0
  0
VERTEX
  5
390
  8
FINAL_PROJECT_CHASSIS_2_V1
 10
78.5033
 20
402.5227
 30
0.0
  0
VERTEX
  5
391
  8
FINAL_PROJECT_CHASSIS_2_V1
 10
76.5599
 20
402.2328
 30
0.0
  0
VERTEX
  5
392
  8
FINAL_PROJECT_CHASSIS_2_V1
 10
74.6632
 20
401.7561
 30
0.0
  0
VERTEX
  5
393
  8
FINAL_PROJECT_CHASSIS_2_V1
 10
72.8262
 20
401.0982
 30
0.0
  0
VERTEX
  5
394
  8
FINAL_PROJECT_CHASSIS_2_V1
 10
71.0621
 20
400.2645
 30
0.0
  0
VERTEX
  5
395
  8
FINAL_PROJECT_CHASSIS_2_V1
 10
69.384
 20
399.2604
 30
0.0
  0
VERTEX
  5
396
  8
FINAL_PROJECT_CHASSIS_2_V1
 10
67.805
 20
398.0913
 30
0.0
  0
VERTEX
  5
397
  8
FINAL_PROJECT_CHASSIS_2_V1
 10
66.3383
 20
396.7626
 30
0.0
  0
VERTEX
  5
398
  8
FINAL_PROJECT_CHASSIS_2_V1
 10
65.0096
 20
395.2959
 30
0.0
  0
VERTEX
  5
399
  8
FINAL_PROJECT_CHASSIS_2_V1
 10
63.8405
 20
393.7169
 30
0.0
  0
VERTEX
  5
39A
  8
FINAL_PROJECT_CHASSIS_2_V1
 10
62.8364
 20
392.0388
 30
0.0
  0
VERTEX
  5
39B
  8
FINAL_PROJECT_CHASSIS_2_V1
 10
62.0027
 20
390.2747
 30
0.0
  0
VERTEX
  5
39C
  8
FINAL_PROJECT_CHASSIS_2_V1
 10
61.3448
 20
388.4377
 30
0.0
  0
VERTEX
  5
39D
  8
FINAL_PROJECT_CHASSIS_2_V1
 10
60.8681
 20
386.541
 30
0.0
  0
VERTEX
  5
39E
  8
FINAL_PROJECT_CHASSIS_2_V1
 10
60.5782
 20
384.5976
 30
0.0
  0
VERTEX
  5
39F
  8
FINAL_PROJECT_CHASSIS_2_V1
 10
60.4803
 20
382.6206
 30
0.0
  0
SEQEND
  5
641
  8
FINAL_PROJECT_CHASSIS_2_V1
  0
POLYLINE
  5
F9
  8
FINAL_PROJECT_CHASSIS_2_V1
 66
     1
 10
0.0
 20
0.0
 30
0.0
  0
VERTEX
  5
3A0
  8
FINAL_PROJECT_CHASSIS_2_V1
 10
-438.1446
 20
-575.7154
 30
0.0
  0
VERTEX
  5
3A1
  8
FINAL_PROJECT_CHASSIS_2_V1
 10
-453.1446
 20
-575.7154
 30
0.0
  0
SEQEND
  5
642
  8
FINAL_PROJECT_CHASSIS_2_V1
  0
POLYLINE
  5
FA
  8
FINAL_PROJECT_CHASSIS_2_V1
 66
     1
 10
0.0
 20
0.0
 30
0.0
  0
VERTEX
  5
3A2
  8
FINAL_PROJECT_CHASSIS_2_V1
 10
-160.1841
 20
1022.7944
 30
0.0
  0
VERTEX
  5
3A3
  8
FINAL_PROJECT_CHASSIS_2_V1
 10
-70.1841
 20
1022.7944
 30
0.0
  0
SEQEND
  5
643
  8
FINAL_PROJECT_CHASSIS_2_V1
  0
POLYLINE
  5
FB
  8
FINAL_PROJECT_CHASSIS_2_V1
 66
     1
 10
0.0
 20
0.0
 30
0.0
  0
VERTEX
  5
3A4
  8
FINAL_PROJECT_CHASSIS_2_V1
 10
92.0158
 20
1020.6345
 30
0.0
  0
VERTEX
  5
3A5
  8
FINAL_PROJECT_CHASSIS_2_V1
 10
182.0158
 20
1020.6345
 30
0.0
  0
SEQEND
  5
644
  8
FINAL_PROJECT_CHASSIS_2_V1
  0
POLYLINE
  5
FC
  8
FINAL_PROJECT_CHASSIS_2_V1
 66
     1
 10
0.0
 20
0.0
 30
0.0
  0
VERTEX
  5
3A6
  8
FINAL_PROJECT_CHASSIS_2_V1
 10
137.0158
 20
795.6345
 30
0.0
  0
VERTEX
  5
3A7
  8
FINAL_PROJECT_CHASSIS_2_V1
 10
122.0158
 20
795.6345
 30
0.0
  0
SEQEND
  5
645
  8
FINAL_PROJECT_CHASSIS_2_V1
  0
POLYLINE
  5
FD
  8
FINAL_PROJECT_CHASSIS_2_V1
 66
     1
 10
0.0
 20
0.0
 30
0.0
  0
VERTEX
  5
3A8
  8
FINAL_PROJECT_CHASSIS_2_V1
 10
-385.1841
 20
902.7944
 30
0.0
  0
VERTEX
  5
3A9
  8
FINAL_PROJECT_CHASSIS_2_V1
 10
-385.1841
 20
572.7944
 30
0.0
  0
SEQEND
  5
646
  8
FINAL_PROJECT_CHASSIS_2_V1
  0
POLYLINE
  5
FE
  8
FINAL_PROJECT_CHASSIS_2_V1
 66
     1
 10
0.0
 20
0.0
 30
0.0
  0
VERTEX
  5
3AA
  8
FINAL_PROJECT_CHASSIS_2_V1
 10
-130.1841
 20
572.7944
 30
0.0
  0
VERTEX
  5
3AB
  8
FINAL_PROJECT_CHASSIS_2_V1
 10
-165.1841
 20
572.7944
 30
0.0
  0
SEQEND
  5
647
  8
FINAL_PROJECT_CHASSIS_2_V1
  0
POLYLINE
  5
FF
  8
FINAL_PROJECT_CHASSIS_2_V1
 66
     1
 10
0.0
 20
0.0
 30
0.0
  0
VERTEX
  5
3AC
  8
FINAL_PROJECT_CHASSIS_2_V1
 10
-390.1841
 20
1040.7944
 30
0.0
  0
VERTEX
  5
3AD
  8
FINAL_PROJECT_CHASSIS_2_V1
 10
-300.1841
 20
1040.7944
 30
0.0
  0
SEQEND
  5
648
  8
FINAL_PROJECT_CHASSIS_2_V1
  0
POLYLINE
  5
100
  8
FINAL_PROJECT_CHASSIS_2_V1
 66
     1
 10
0.0
 20
0.0
 30
0.0
  0
VERTEX
  5
3AE
  8
FINAL_PROJECT_CHASSIS_2_V1
 10
-103.1446
 20
-270.7154
 30
0.0
  0
VERTEX
  5
3AF
  8
FINAL_PROJECT_CHASSIS_2_V1
 10
-118.1446
 20
-270.7154
 30
0.0
  0
SEQEND
  5
649
  8
FINAL_PROJECT_CHASSIS_2_V1
  0
POLYLINE
  5
101
  8
FINAL_PROJECT_CHASSIS_2_V1
 66
     1
 10
0.0
 20
0.0
 30
0.0
  0
VERTEX
  5
3B0
  8
FINAL_PROJECT_CHASSIS_2_V1
 10
-465.1841
 20
572.7944
 30
0.0
  0
VERTEX
  5
3B1
  8
FINAL_PROJECT_CHASSIS_2_V1
 10
-465.1841
 20
557.7944
 30
0.0
  0
SEQEND
  5
64A
  8
FINAL_PROJECT_CHASSIS_2_V1
  0
POLYLINE
  5
102
  8
FINAL_PROJECT_CHASSIS_2_V1
 66
     1
 10
0.0
 20
0.0
 30
0.0
  0
VERTEX
  5
3B2
  8
FINAL_PROJECT_CHASSIS_2_V1
 10
-165.1841
 20
902.7944
 30
0.0
  0
VERTEX
  5
3B3
  8
FINAL_PROJECT_CHASSIS_2_V1
 10
-165.5905
 20
906.8252
 30
0.0
  0
VERTEX
  5
3B4
  8
FINAL_PROJECT_CHASSIS_2_V1
 10
-166.7559
 20
910.5794
 30
0.0
  0
VERTEX
  5
3B5
  8
FINAL_PROJECT_CHASSIS_2_V1
 10
-168.6
 20
913.9767
 30
0.0
  0
VERTEX
  5
3B6
  8
FINAL_PROJECT_CHASSIS_2_V1
 10
-171.0422
 20
916.9367
 30
0.0
  0
VERTEX
  5
3B7
  8
FINAL_PROJECT_CHASSIS_2_V1
 10
-174.0022
 20
919.3788
 30
0.0
  0
VERTEX
  5
3B8
  8
FINAL_PROJECT_CHASSIS_2_V1
 10
-177.3995
 20
921.2227
 30
0.0
  0
VERTEX
  5
3B9
  8
FINAL_PROJECT_CHASSIS_2_V1
 10
-181.1536
 20
922.3881
 30
0.0
  0
VERTEX
  5
3BA
  8
FINAL_PROJECT_CHASSIS_2_V1
 10
-185.1841
 20
922.7944
 30
0.0
  0
SEQEND
  5
64B
  8
FINAL_PROJECT_CHASSIS_2_V1
  0
POLYLINE
  5
103
  8
FINAL_PROJECT_CHASSIS_2_V1
 66
     1
 10
0.0
 20
0.0
 30
0.0
  0
VERTEX
  5
3BB
  8
FINAL_PROJECT_CHASSIS_2_V1
 10
-438.1446
 20
-240.7154
 30
0.0
  0
VERTEX
  5
3BC
  8
FINAL_PROJECT_CHASSIS_2_V1
 10
-453.1446
 20
-240.7154
 30
0.0
  0
SEQEND
  5
64C
  8
FINAL_PROJECT_CHASSIS_2_V1
  0
POLYLINE
  5
104
  8
FINAL_PROJECT_CHASSIS_2_V1
 66
     1
 10
0.0
 20
0.0
 30
0.0
  0
VERTEX
  5
3BD
  8
FINAL_PROJECT_CHASSIS_2_V1
 10
-165.1841
 20
902.7944
 30
0.0
  0
VERTEX
  5
3BE
  8
FINAL_PROJECT_CHASSIS_2_V1
 10
-165.1841
 20
572.7944
 30
0.0
  0
SEQEND
  5
64D
  8
FINAL_PROJECT_CHASSIS_2_V1
  0
POLYLINE
  5
105
  8
FINAL_PROJECT_CHASSIS_2_V1
 66
     1
 10
0.0
 20
0.0
 30
0.0
  0
VERTEX
  5
3BF
  8
FINAL_PROJECT_CHASSIS_2_V1
 10
-453.1446
 20
-605.7154
 30
0.0
  0
VERTEX
  5
3C0
  8
FINAL_PROJECT_CHASSIS_2_V1
 10
-438.1446
 20
-605.7154
 30
0.0
  0
SEQEND
  5
64E
  8
FINAL_PROJECT_CHASSIS_2_V1
  0
POLYLINE
  5
106
  8
FINAL_PROJECT_CHASSIS_2_V1
 66
     1
 10
0.0
 20
0.0
 30
0.0
  0
VERTEX
  5
3C1
  8
FINAL_PROJECT_CHASSIS_2_V1
 10
442.0158
 20
555.6345
 30
0.0
  0
VERTEX
  5
3C2
  8
FINAL_PROJECT_CHASSIS_2_V1
 10
457.0158
 20
555.6345
 30
0.0
  0
SEQEND
  5
64F
  8
FINAL_PROJECT_CHASSIS_2_V1
  0
POLYLINE
  5
107
  8
FINAL_PROJECT_CHASSIS_2_V1
 66
     1
 10
0.0
 20
0.0
 30
0.0
  0
VERTEX
  5
3C3
  8
FINAL_PROJECT_CHASSIS_2_V1
 10
182.0158
 20
1038.6345
 30
0.0
  0
VERTEX
  5
3C4
  8
FINAL_PROJECT_CHASSIS_2_V1
 10
272.0158
 20
1038.6345
 30
0.0
  0
SEQEND
  5
650
  8
FINAL_PROJECT_CHASSIS_2_V1
  0
POLYLINE
  5
108
  8
FINAL_PROJECT_CHASSIS_2_V1
 66
     1
 10
0.0
 20
0.0
 30
0.0
  0
VERTEX
  5
3C5
  8
FINAL_PROJECT_CHASSIS_2_V1
 10
195.4803
 20
302.6206
 30
0.0
  0
VERTEX
  5
3C6
  8
FINAL_PROJECT_CHASSIS_2_V1
 10
193.5033
 20
302.5227
 30
0.0
  0
VERTEX
  5
3C7
  8
FINAL_PROJECT_CHASSIS_2_V1
 10
191.5599
 20
302.2328
 30
0.0
  0
VERTEX
  5
3C8
  8
FINAL_PROJECT_CHASSIS_2_V1
 10
189.6632
 20
301.7561
 30
0.0
  0
VERTEX
  5
3C9
  8
FINAL_PROJECT_CHASSIS_2_V1
 10
187.8262
 20
301.0982
 30
0.0
  0
VERTEX
  5
3CA
  8
FINAL_PROJECT_CHASSIS_2_V1
 10
186.0621
 20
300.2645
 30
0.0
  0
VERTEX
  5
3CB
  8
FINAL_PROJECT_CHASSIS_2_V1
 10
184.384
 20
299.2604
 30
0.0
  0
VERTEX
  5
3CC
  8
FINAL_PROJECT_CHASSIS_2_V1
 10
182.805
 20
298.0913
 30
0.0
  0
VERTEX
  5
3CD
  8
FINAL_PROJECT_CHASSIS_2_V1
 10
181.3383
 20
296.7626
 30
0.0
  0
VERTEX
  5
3CE
  8
FINAL_PROJECT_CHASSIS_2_V1
 10
180.0096
 20
295.2959
 30
0.0
  0
VERTEX
  5
3CF
  8
FINAL_PROJECT_CHASSIS_2_V1
 10
178.8405
 20
293.7169
 30
0.0
  0
VERTEX
  5
3D0
  8
FINAL_PROJECT_CHASSIS_2_V1
 10
177.8364
 20
292.0388
 30
0.0
  0
VERTEX
  5
3D1
  8
FINAL_PROJECT_CHASSIS_2_V1
 10
177.0027
 20
290.2747
 30
0.0
  0
VERTEX
  5
3D2
  8
FINAL_PROJECT_CHASSIS_2_V1
 10
176.3448
 20
288.4377
 30
0.0
  0
VERTEX
  5
3D3
  8
FINAL_PROJECT_CHASSIS_2_V1
 10
175.8681
 20
286.541
 30
0.0
  0
VERTEX
  5
3D4
  8
FINAL_PROJECT_CHASSIS_2_V1
 10
175.5782
 20
284.5976
 30
0.0
  0
VERTEX
  5
3D5
  8
FINAL_PROJECT_CHASSIS_2_V1
 10
175.4803
 20
282.6206
 30
0.0
  0
SEQEND
  5
651
  8
FINAL_PROJECT_CHASSIS_2_V1
  0
POLYLINE
  5
109
  8
FINAL_PROJECT_CHASSIS_2_V1
 66
     1
 10
0.0
 20
0.0
 30
0.0
  0
VERTEX
  5
3D6
  8
FINAL_PROJECT_CHASSIS_2_V1
 10
460.4803
 20
177.5646
 30
0.0
  0
VERTEX
  5
3D7
  8
FINAL_PROJECT_CHASSIS_2_V1
 10
445.4803
 20
177.5646
 30
0.0
  0
SEQEND
  5
652
  8
FINAL_PROJECT_CHASSIS_2_V1
  0
POLYLINE
  5
10A
  8
FINAL_PROJECT_CHASSIS_2_V1
 66
     1
 10
0.0
 20
0.0
 30
0.0
  0
VERTEX
  5
3D8
  8
FINAL_PROJECT_CHASSIS_2_V1
 10
125.4803
 20
-65.3794
 30
0.0
  0
VERTEX
  5
3D9
  8
FINAL_PROJECT_CHASSIS_2_V1
 10
125.4803
 20
-47.3644
 30
0.0
  0
SEQEND
  5
653
  8
FINAL_PROJECT_CHASSIS_2_V1
  0
POLYLINE
  5
10B
  8
FINAL_PROJECT_CHASSIS_2_V1
 66
     1
 10
0.0
 20
0.0
 30
0.0
  0
VERTEX
  5
3DA
  8
FINAL_PROJECT_CHASSIS_2_V1
 10
475.4803
 20
-65.3794
 30
0.0
  0
VERTEX
  5
3DB
  8
FINAL_PROJECT_CHASSIS_2_V1
 10
460.4803
 20
-65.3794
 30
0.0
  0
SEQEND
  5
654
  8
FINAL_PROJECT_CHASSIS_2_V1
  0
POLYLINE
  5
10C
  8
FINAL_PROJECT_CHASSIS_2_V1
 66
     1
 10
0.0
 20
0.0
 30
0.0
  0
VERTEX
  5
3DC
  8
FINAL_PROJECT_CHASSIS_2_V1
 10
310.4803
 20
417.6206
 30
0.0
  0
VERTEX
  5
3DD
  8
FINAL_PROJECT_CHASSIS_2_V1
 10
400.4803
 20
417.6206
 30
0.0
  0
SEQEND
  5
655
  8
FINAL_PROJECT_CHASSIS_2_V1
  0
POLYLINE
  5
10D
  8
FINAL_PROJECT_CHASSIS_2_V1
 66
     1
 10
0.0
 20
0.0
 30
0.0
  0
VERTEX
  5
3DE
  8
FINAL_PROJECT_CHASSIS_2_V1
 10
510.4803
 20
382.6206
 30
0.0
  0
VERTEX
  5
3DF
  8
FINAL_PROJECT_CHASSIS_2_V1
 10
510.3824
 20
384.5976
 30
0.0
  0
VERTEX
  5
3E0
  8
FINAL_PROJECT_CHASSIS_2_V1
 10
510.0925
 20
386.541
 30
0.0
  0
VERTEX
  5
3E1
  8
FINAL_PROJECT_CHASSIS_2_V1
 10
509.6158
 20
388.4377
 30
0.0
  0
VERTEX
  5
3E2
  8
FINAL_PROJECT_CHASSIS_2_V1
 10
508.9579
 20
390.2747
 30
0.0
  0
VERTEX
  5
3E3
  8
FINAL_PROJECT_CHASSIS_2_V1
 10
508.1242
 20
392.0388
 30
0.0
  0
VERTEX
  5
3E4
  8
FINAL_PROJECT_CHASSIS_2_V1
 10
507.1201
 20
393.7169
 30
0.0
  0
VERTEX
  5
3E5
  8
FINAL_PROJECT_CHASSIS_2_V1
 10
505.951
 20
395.2959
 30
0.0
  0
VERTEX
  5
3E6
  8
FINAL_PROJECT_CHASSIS_2_V1
 10
504.6223
 20
396.7626
 30
0.0
  0
VERTEX
  5
3E7
  8
FINAL_PROJECT_CHASSIS_2_V1
 10
503.1552
 20
398.0913
 30
0.0
  0
VERTEX
  5
3E8
  8
FINAL_PROJECT_CHASSIS_2_V1
 10
501.576
 20
399.2604
 30
0.0
  0
VERTEX
  5
3E9
  8
FINAL_PROJECT_CHASSIS_2_V1
 10
499.8978
 20
400.2645
 30
0.0
  0
VERTEX
  5
3EA
  8
FINAL_PROJECT_CHASSIS_2_V1
 10
498.1337
 20
401.0982
 30
0.0
  0
VERTEX
  5
3EB
  8
FINAL_PROJECT_CHASSIS_2_V1
 10
496.2967
 20
401.7561
 30
0.0
  0
VERTEX
  5
3EC
  8
FINAL_PROJECT_CHASSIS_2_V1
 10
494.4001
 20
402.2328
 30
0.0
  0
VERTEX
  5
3ED
  8
FINAL_PROJECT_CHASSIS_2_V1
 10
492.4569
 20
402.5227
 30
0.0
  0
VERTEX
  5
3EE
  8
FINAL_PROJECT_CHASSIS_2_V1
 10
490.4803
 20
402.6206
 30
0.0
  0
SEQEND
  5
656
  8
FINAL_PROJECT_CHASSIS_2_V1
  0
POLYLINE
  5
10E
  8
FINAL_PROJECT_CHASSIS_2_V1
 66
     1
 10
0.0
 20
0.0
 30
0.0
  0
VERTEX
  5
3EF
  8
FINAL_PROJECT_CHASSIS_2_V1
 10
430.4803
 20
-65.3794
 30
0.0
  0
VERTEX
  5
3F0
  8
FINAL_PROJECT_CHASSIS_2_V1
 10
445.4803
 20
-65.3794
 30
0.0
  0
SEQEND
  5
657
  8
FINAL_PROJECT_CHASSIS_2_V1
  0
POLYLINE
  5
10F
  8
FINAL_PROJECT_CHASSIS_2_V1
 66
     1
 10
0.0
 20
0.0
 30
0.0
  0
VERTEX
  5
3F1
  8
FINAL_PROJECT_CHASSIS_2_V1
 10
510.4803
 20
382.6206
 30
0.0
  0
VERTEX
  5
3F2
  8
FINAL_PROJECT_CHASSIS_2_V1
 10
510.4803
 20
-47.3794
 30
0.0
  0
SEQEND
  5
658
  8
FINAL_PROJECT_CHASSIS_2_V1
  0
POLYLINE
  5
110
  8
FINAL_PROJECT_CHASSIS_2_V1
 66
     1
 10
0.0
 20
0.0
 30
0.0
  0
VERTEX
  5
3F3
  8
FINAL_PROJECT_CHASSIS_2_V1
 10
400.4803
 20
417.6206
 30
0.0
  0
VERTEX
  5
3F4
  8
FINAL_PROJECT_CHASSIS_2_V1
 10
400.4803
 20
402.6206
 30
0.0
  0
SEQEND
  5
659
  8
FINAL_PROJECT_CHASSIS_2_V1
  0
POLYLINE
  5
111
  8
FINAL_PROJECT_CHASSIS_2_V1
 66
     1
 10
0.0
 20
0.0
 30
0.0
  0
VERTEX
  5
3F5
  8
FINAL_PROJECT_CHASSIS_2_V1
 10
460.4803
 20
-47.4354
 30
0.0
  0
VERTEX
  5
3F6
  8
FINAL_PROJECT_CHASSIS_2_V1
 10
460.4803
 20
177.5646
 30
0.0
  0
SEQEND
  5
65A
  8
FINAL_PROJECT_CHASSIS_2_V1
  0
POLYLINE
  5
112
  8
FINAL_PROJECT_CHASSIS_2_V1
 66
     1
 10
0.0
 20
0.0
 30
0.0
  0
VERTEX
  5
3F7
  8
FINAL_PROJECT_CHASSIS_2_V1
 10
272.0158
 20
1020.6345
 30
0.0
  0
VERTEX
  5
3F8
  8
FINAL_PROJECT_CHASSIS_2_V1
 10
322.0158
 20
1020.6345
 30
0.0
  0
SEQEND
  5
65B
  8
FINAL_PROJECT_CHASSIS_2_V1
  0
POLYLINE
  5
113
  8
FINAL_PROJECT_CHASSIS_2_V1
 66
     1
 10
0.0
 20
0.0
 30
0.0
  0
VERTEX
  5
3F9
  8
FINAL_PROJECT_CHASSIS_2_V1
 10
107.0158
 20
570.6345
 30
0.0
  0
VERTEX
  5
3FA
  8
FINAL_PROJECT_CHASSIS_2_V1
 10
72.0158
 20
570.6345
 30
0.0
  0
SEQEND
  5
65C
  8
FINAL_PROJECT_CHASSIS_2_V1
  0
POLYLINE
  5
114
  8
FINAL_PROJECT_CHASSIS_2_V1
 66
     1
 10
0.0
 20
0.0
 30
0.0
  0
VERTEX
  5
3FB
  8
FINAL_PROJECT_CHASSIS_2_V1
 10
510.4803
 20
-47.3794
 30
0.0
  0
VERTEX
  5
3FC
  8
FINAL_PROJECT_CHASSIS_2_V1
 10
475.4803
 20
-47.3794
 30
0.0
  0
SEQEND
  5
65D
  8
FINAL_PROJECT_CHASSIS_2_V1
  0
POLYLINE
  5
115
  8
FINAL_PROJECT_CHASSIS_2_V1
 66
     1
 10
0.0
 20
0.0
 30
0.0
  0
VERTEX
  5
3FD
  8
FINAL_PROJECT_CHASSIS_2_V1
 10
95.4803
 20
-65.3794
 30
0.0
  0
VERTEX
  5
3FE
  8
FINAL_PROJECT_CHASSIS_2_V1
 10
110.4803
 20
-65.3794
 30
0.0
  0
SEQEND
  5
65E
  8
FINAL_PROJECT_CHASSIS_2_V1
  0
POLYLINE
  5
116
  8
FINAL_PROJECT_CHASSIS_2_V1
 66
     1
 10
0.0
 20
0.0
 30
0.0
  0
VERTEX
  5
3FF
  8
FINAL_PROJECT_CHASSIS_2_V1
 10
472.0158
 20
563.2345
 30
0.0
  0
VERTEX
  5
400
  8
FINAL_PROJECT_CHASSIS_2_V1
 10
472.0158
 20
795.6345
 30
0.0
  0
SEQEND
  5
65F
  8
FINAL_PROJECT_CHASSIS_2_V1
  0
POLYLINE
  5
117
  8
FINAL_PROJECT_CHASSIS_2_V1
 66
     1
 10
0.0
 20
0.0
 30
0.0
  0
VERTEX
  5
401
  8
FINAL_PROJECT_CHASSIS_2_V1
 10
72.0158
 20
570.6345
 30
0.0
  0
VERTEX
  5
402
  8
FINAL_PROJECT_CHASSIS_2_V1
 10
72.0158
 20
1000.6345
 30
0.0
  0
SEQEND
  5
660
  8
FINAL_PROJECT_CHASSIS_2_V1
  0
POLYLINE
  5
118
  8
FINAL_PROJECT_CHASSIS_2_V1
 66
     1
 10
0.0
 20
0.0
 30
0.0
  0
VERTEX
  5
403
  8
FINAL_PROJECT_CHASSIS_2_V1
 10
-503.1446
 20
-620.7154
 30
0.0
  0
VERTEX
  5
404
  8
FINAL_PROJECT_CHASSIS_2_V1
 10
-503.0467
 20
-622.6921
 30
0.0
  0
VERTEX
  5
405
  8
FINAL_PROJECT_CHASSIS_2_V1
 10
-502.7568
 20
-624.6354
 30
0.0
  0
VERTEX
  5
406
  8
FINAL_PROJECT_CHASSIS_2_V1
 10
-502.2801
 20
-626.5321
 30
0.0
  0
VERTEX
  5
407
  8
FINAL_PROJECT_CHASSIS_2_V1
 10
-501.6222
 20
-628.3692
 30
0.0
  0
VERTEX
  5
408
  8
FINAL_PROJECT_CHASSIS_2_V1
 10
-500.7885
 20
-630.1333
 30
0.0
  0
VERTEX
  5
409
  8
FINAL_PROJECT_CHASSIS_2_V1
 10
-499.7844
 20
-631.8116
 30
0.0
  0
VERTEX
  5
40A
  8
FINAL_PROJECT_CHASSIS_2_V1
 10
-498.6153
 20
-633.3906
 30
0.0
  0
VERTEX
  5
40B
  8
FINAL_PROJECT_CHASSIS_2_V1
 10
-497.2866
 20
-634.8574
 30
0.0
  0
VERTEX
  5
40C
  8
FINAL_PROJECT_CHASSIS_2_V1
 10
-495.8199
 20
-636.1861
 30
0.0
  0
VERTEX
  5
40D
  8
FINAL_PROJECT_CHASSIS_2_V1
 10
-494.2409
 20
-637.3552
 30
0.0
  0
VERTEX
  5
40E
  8
FINAL_PROJECT_CHASSIS_2_V1
 10
-492.5628
 20
-638.3593
 30
0.0
  0
VERTEX
  5
40F
  8
FINAL_PROJECT_CHASSIS_2_V1
 10
-490.7987
 20
-639.193
 30
0.0
  0
VERTEX
  5
410
  8
FINAL_PROJECT_CHASSIS_2_V1
 10
-488.9617
 20
-639.8509
 30
0.0
  0
VERTEX
  5
411
  8
FINAL_PROJECT_CHASSIS_2_V1
 10
-487.065
 20
-640.3276
 30
0.0
  0
VERTEX
  5
412
  8
FINAL_PROJECT_CHASSIS_2_V1
 10
-485.1216
 20
-640.6175
 30
0.0
  0
VERTEX
  5
413
  8
FINAL_PROJECT_CHASSIS_2_V1
 10
-483.1446
 20
-640.7154
 30
0.0
  0
SEQEND
  5
661
  8
FINAL_PROJECT_CHASSIS_2_V1
  0
POLYLINE
  5
119
  8
FINAL_PROJECT_CHASSIS_2_V1
 66
     1
 10
0.0
 20
0.0
 30
0.0
  0
VERTEX
  5
414
  8
FINAL_PROJECT_CHASSIS_2_V1
 10
-253.1446
 20
-575.7154
 30
0.0
  0
VERTEX
  5
415
  8
FINAL_PROJECT_CHASSIS_2_V1
 10
-163.1446
 20
-575.7154
 30
0.0
  0
SEQEND
  5
662
  8
FINAL_PROJECT_CHASSIS_2_V1
  0
POLYLINE
  5
11A
  8
FINAL_PROJECT_CHASSIS_2_V1
 66
     1
 10
0.0
 20
0.0
 30
0.0
  0
VERTEX
  5
416
  8
FINAL_PROJECT_CHASSIS_2_V1
 10
152.0158
 20
570.6345
 30
0.0
  0
VERTEX
  5
417
  8
FINAL_PROJECT_CHASSIS_2_V1
 10
152.0158
 20
555.6345
 30
0.0
  0
SEQEND
  5
663
  8
FINAL_PROJECT_CHASSIS_2_V1
  0
POLYLINE
  5
11B
  8
FINAL_PROJECT_CHASSIS_2_V1
 66
     1
 10
0.0
 20
0.0
 30
0.0
  0
VERTEX
  5
418
  8
FINAL_PROJECT_CHASSIS_2_V1
 10
412.0158
 20
1020.6345
 30
0.0
  0
VERTEX
  5
419
  8
FINAL_PROJECT_CHASSIS_2_V1
 10
502.0158
 20
1020.6345
 30
0.0
  0
SEQEND
  5
664
  8
FINAL_PROJECT_CHASSIS_2_V1
  0
POLYLINE
  5
11C
  8
FINAL_PROJECT_CHASSIS_2_V1
 66
     1
 10
0.0
 20
0.0
 30
0.0
  0
VERTEX
  5
41A
  8
FINAL_PROJECT_CHASSIS_2_V1
 10
430.4803
 20
-47.3794
 30
0.0
  0
VERTEX
  5
41B
  8
FINAL_PROJECT_CHASSIS_2_V1
 10
395.4803
 20
-47.3794
 30
0.0
  0
SEQEND
  5
665
  8
FINAL_PROJECT_CHASSIS_2_V1
  0
POLYLINE
  5
11D
  8
FINAL_PROJECT_CHASSIS_2_V1
 66
     1
 10
0.0
 20
0.0
 30
0.0
  0
VERTEX
  5
41C
  8
FINAL_PROJECT_CHASSIS_2_V1
 10
407.0158
 20
900.6345
 30
0.0
  0
VERTEX
  5
41D
  8
FINAL_PROJECT_CHASSIS_2_V1
 10
406.9179
 20
902.6111
 30
0.0
  0
VERTEX
  5
41E
  8
FINAL_PROJECT_CHASSIS_2_V1
 10
406.628
 20
904.5543
 30
0.0
  0
VERTEX
  5
41F
  8
FINAL_PROJECT_CHASSIS_2_V1
 10
406.1513
 20
906.4509
 30
0.0
  0
VERTEX
  5
420
  8
FINAL_PROJECT_CHASSIS_2_V1
 10
405.4934
 20
908.2879
 30
0.0
  0
VERTEX
  5
421
  8
FINAL_PROJECT_CHASSIS_2_V1
 10
404.6597
 20
910.052
 30
0.0
  0
VERTEX
  5
422
  8
FINAL_PROJECT_CHASSIS_2_V1
 10
403.6556
 20
911.7302
 30
0.0
  0
VERTEX
  5
423
  8
FINAL_PROJECT_CHASSIS_2_V1
 10
402.4865
 20
913.3094
 30
0.0
  0
VERTEX
  5
424
  8
FINAL_PROJECT_CHASSIS_2_V1
 10
401.1578
 20
914.7765
 30
0.0
  0
VERTEX
  5
425
  8
FINAL_PROJECT_CHASSIS_2_V1
 10
399.6907
 20
916.1052
 30
0.0
  0
VERTEX
  5
426
  8
FINAL_PROJECT_CHASSIS_2_V1
 10
398.1115
 20
917.2743
 30
0.0
  0
VERTEX
  5
427
  8
FINAL_PROJECT_CHASSIS_2_V1
 10
396.4333
 20
918.2784
 30
0.0
  0
VERTEX
  5
428
  8
FINAL_PROJECT_CHASSIS_2_V1
 10
394.6692
 20
919.1121
 30
0.0
  0
VERTEX
  5
429
  8
FINAL_PROJECT_CHASSIS_2_V1
 10
392.8322
 20
919.77
 30
0.0
  0
VERTEX
  5
42A
  8
FINAL_PROJECT_CHASSIS_2_V1
 10
390.9356
 20
920.2467
 30
0.0
  0
VERTEX
  5
42B
  8
FINAL_PROJECT_CHASSIS_2_V1
 10
388.9924
 20
920.5366
 30
0.0
  0
VERTEX
  5
42C
  8
FINAL_PROJECT_CHASSIS_2_V1
 10
387.0158
 20
920.6345
 30
0.0
  0
SEQEND
  5
666
  8
FINAL_PROJECT_CHASSIS_2_V1
  0
POLYLINE
  5
11E
  8
FINAL_PROJECT_CHASSIS_2_V1
 66
     1
 10
0.0
 20
0.0
 30
0.0
  0
VERTEX
  5
42D
  8
FINAL_PROJECT_CHASSIS_2_V1
 10
445.4803
 20
177.5646
 30
0.0
  0
VERTEX
  5
42E
  8
FINAL_PROJECT_CHASSIS_2_V1
 10
445.4803
 20
-47.4354
 30
0.0
  0
SEQEND
  5
667
  8
FINAL_PROJECT_CHASSIS_2_V1
  0
POLYLINE
  5
11F
  8
FINAL_PROJECT_CHASSIS_2_V1
 66
     1
 10
0.0
 20
0.0
 30
0.0
  0
VERTEX
  5
42F
  8
FINAL_PROJECT_CHASSIS_2_V1
 10
-453.1446
 20
-225.7154
 30
0.0
  0
VERTEX
  5
430
  8
FINAL_PROJECT_CHASSIS_2_V1
 10
-438.1446
 20
-225.7154
 30
0.0
  0
SEQEND
  5
668
  8
FINAL_PROJECT_CHASSIS_2_V1
  0
POLYLINE
  5
120
  8
FINAL_PROJECT_CHASSIS_2_V1
 66
     1
 10
0.0
 20
0.0
 30
0.0
  0
VERTEX
  5
431
  8
FINAL_PROJECT_CHASSIS_2_V1
 10
-438.1446
 20
-590.7154
 30
0.0
  0
VERTEX
  5
432
  8
FINAL_PROJECT_CHASSIS_2_V1
 10
-453.1446
 20
-590.7154
 30
0.0
  0
SEQEND
  5
669
  8
FINAL_PROJECT_CHASSIS_2_V1
  0
POLYLINE
  5
121
  8
FINAL_PROJECT_CHASSIS_2_V1
 66
     1
 10
0.0
 20
0.0
 30
0.0
  0
VERTEX
  5
433
  8
FINAL_PROJECT_CHASSIS_2_V1
 10
122.0158
 20
555.6345
 30
0.0
  0
VERTEX
  5
434
  8
FINAL_PROJECT_CHASSIS_2_V1
 10
122.0158
 20
570.6345
 30
0.0
  0
SEQEND
  5
66A
  8
FINAL_PROJECT_CHASSIS_2_V1
  0
POLYLINE
  5
122
  8
FINAL_PROJECT_CHASSIS_2_V1
 66
     1
 10
0.0
 20
0.0
 30
0.0
  0
VERTEX
  5
435
  8
FINAL_PROJECT_CHASSIS_2_V1
 10
107.0158
 20
555.6345
 30
0.0
  0
VERTEX
  5
436
  8
FINAL_PROJECT_CHASSIS_2_V1
 10
122.0158
 20
555.6345
 30
0.0
  0
SEQEND
  5
66B
  8
FINAL_PROJECT_CHASSIS_2_V1
  0
POLYLINE
  5
123
  8
FINAL_PROJECT_CHASSIS_2_V1
 66
     1
 10
0.0
 20
0.0
 30
0.0
  0
VERTEX
  5
437
  8
FINAL_PROJECT_CHASSIS_2_V1
 10
445.4803
 20
-65.3794
 30
0.0
  0
VERTEX
  5
438
  8
FINAL_PROJECT_CHASSIS_2_V1
 10
445.4803
 20
-47.4354
 30
0.0
  0
SEQEND
  5
66C
  8
FINAL_PROJECT_CHASSIS_2_V1
  0
POLYLINE
  5
124
  8
FINAL_PROJECT_CHASSIS_2_V1
 66
     1
 10
0.0
 20
0.0
 30
0.0
  0
VERTEX
  5
439
  8
FINAL_PROJECT_CHASSIS_2_V1
 10
125.4803
 20
177.6206
 30
0.0
  0
VERTEX
  5
43A
  8
FINAL_PROJECT_CHASSIS_2_V1
 10
110.4803
 20
177.6206
 30
0.0
  0
SEQEND
  5
66D
  8
FINAL_PROJECT_CHASSIS_2_V1
  0
POLYLINE
  5
125
  8
FINAL_PROJECT_CHASSIS_2_V1
 66
     1
 10
0.0
 20
0.0
 30
0.0
  0
VERTEX
  5
43B
  8
FINAL_PROJECT_CHASSIS_2_V1
 10
487.0158
 20
555.6345
 30
0.0
  0
VERTEX
  5
43C
  8
FINAL_PROJECT_CHASSIS_2_V1
 10
472.0158
 20
555.6345
 30
0.0
  0
SEQEND
  5
66E
  8
FINAL_PROJECT_CHASSIS_2_V1
  0
POLYLINE
  5
126
  8
FINAL_PROJECT_CHASSIS_2_V1
 66
     1
 10
0.0
 20
0.0
 30
0.0
  0
VERTEX
  5
43D
  8
FINAL_PROJECT_CHASSIS_2_V1
 10
322.0158
 20
1020.6345
 30
0.0
  0
VERTEX
  5
43E
  8
FINAL_PROJECT_CHASSIS_2_V1
 10
322.0158
 20
1038.6345
 30
0.0
  0
SEQEND
  5
66F
  8
FINAL_PROJECT_CHASSIS_2_V1
  0
POLYLINE
  5
127
  8
FINAL_PROJECT_CHASSIS_2_V1
 66
     1
 10
0.0
 20
0.0
 30
0.0
  0
VERTEX
  5
43F
  8
FINAL_PROJECT_CHASSIS_2_V1
 10
272.0158
 20
1038.6345
 30
0.0
  0
VERTEX
  5
440
  8
FINAL_PROJECT_CHASSIS_2_V1
 10
272.0158
 20
1020.6345
 30
0.0
  0
SEQEND
  5
670
  8
FINAL_PROJECT_CHASSIS_2_V1
  0
POLYLINE
  5
128
  8
FINAL_PROJECT_CHASSIS_2_V1
 66
     1
 10
0.0
 20
0.0
 30
0.0
  0
VERTEX
  5
441
  8
FINAL_PROJECT_CHASSIS_2_V1
 10
260.4803
 20
417.6206
 30
0.0
  0
VERTEX
  5
442
  8
FINAL_PROJECT_CHASSIS_2_V1
 10
260.4803
 20
402.6206
 30
0.0
  0
SEQEND
  5
671
  8
FINAL_PROJECT_CHASSIS_2_V1
  0
POLYLINE
  5
129
  8
FINAL_PROJECT_CHASSIS_2_V1
 66
     1
 10
0.0
 20
0.0
 30
0.0
  0
VERTEX
  5
443
  8
FINAL_PROJECT_CHASSIS_2_V1
 10
187.0158
 20
570.6345
 30
0.0
  0
VERTEX
  5
444
  8
FINAL_PROJECT_CHASSIS_2_V1
 10
152.0158
 20
570.6345
 30
0.0
  0
SEQEND
  5
672
  8
FINAL_PROJECT_CHASSIS_2_V1
  0
POLYLINE
  5
12A
  8
FINAL_PROJECT_CHASSIS_2_V1
 66
     1
 10
0.0
 20
0.0
 30
0.0
  0
VERTEX
  5
445
  8
FINAL_PROJECT_CHASSIS_2_V1
 10
195.4803
 20
302.6206
 30
0.0
  0
VERTEX
  5
446
  8
FINAL_PROJECT_CHASSIS_2_V1
 10
375.4803
 20
302.6206
 30
0.0
  0
SEQEND
  5
673
  8
FINAL_PROJECT_CHASSIS_2_V1
  0
POLYLINE
  5
12B
  8
FINAL_PROJECT_CHASSIS_2_V1
 66
     1
 10
0.0
 20
0.0
 30
0.0
  0
VERTEX
  5
447
  8
FINAL_PROJECT_CHASSIS_2_V1
 10
187.0158
 20
900.6345
 30
0.0
  0
VERTEX
  5
448
  8
FINAL_PROJECT_CHASSIS_2_V1
 10
187.0158
 20
570.6345
 30
0.0
  0
SEQEND
  5
674
  8
FINAL_PROJECT_CHASSIS_2_V1
  0
POLYLINE
  5
12C
  8
FINAL_PROJECT_CHASSIS_2_V1
 66
     1
 10
0.0
 20
0.0
 30
0.0
  0
VERTEX
  5
449
  8
FINAL_PROJECT_CHASSIS_2_V1
 10
122.0158
 20
795.6345
 30
0.0
  0
VERTEX
  5
44A
  8
FINAL_PROJECT_CHASSIS_2_V1
 10
122.0158
 20
570.6345
 30
0.0
  0
SEQEND
  5
675
  8
FINAL_PROJECT_CHASSIS_2_V1
  0
POLYLINE
  5
12D
  8
FINAL_PROJECT_CHASSIS_2_V1
 66
     1
 10
0.0
 20
0.0
 30
0.0
  0
VERTEX
  5
44B
  8
FINAL_PROJECT_CHASSIS_2_V1
 10
140.4803
 20
-47.3794
 30
0.0
  0
VERTEX
  5
44C
  8
FINAL_PROJECT_CHASSIS_2_V1
 10
140.4803
 20
-65.3794
 30
0.0
  0
SEQEND
  5
676
  8
FINAL_PROJECT_CHASSIS_2_V1
  0
POLYLINE
  5
12E
  8
FINAL_PROJECT_CHASSIS_2_V1
 66
     1
 10
0.0
 20
0.0
 30
0.0
  0
VERTEX
  5
44D
  8
FINAL_PROJECT_CHASSIS_2_V1
 10
260.4803
 20
402.6206
 30
0.0
  0
VERTEX
  5
44E
  8
FINAL_PROJECT_CHASSIS_2_V1
 10
310.4803
 20
402.6206
 30
0.0
  0
SEQEND
  5
677
  8
FINAL_PROJECT_CHASSIS_2_V1
  0
POLYLINE
  5
12F
  8
FINAL_PROJECT_CHASSIS_2_V1
 66
     1
 10
0.0
 20
0.0
 30
0.0
  0
VERTEX
  5
44F
  8
FINAL_PROJECT_CHASSIS_2_V1
 10
322.0158
 20
1038.6345
 30
0.0
  0
VERTEX
  5
450
  8
FINAL_PROJECT_CHASSIS_2_V1
 10
412.0158
 20
1038.6345
 30
0.0
  0
SEQEND
  5
678
  8
FINAL_PROJECT_CHASSIS_2_V1
  0
POLYLINE
  5
130
  8
FINAL_PROJECT_CHASSIS_2_V1
 66
     1
 10
0.0
 20
0.0
 30
0.0
  0
VERTEX
  5
451
  8
FINAL_PROJECT_CHASSIS_2_V1
 10
137.0158
 20
555.6345
 30
0.0
  0
VERTEX
  5
452
  8
FINAL_PROJECT_CHASSIS_2_V1
 10
137.0158
 20
570.6495
 30
0.0
  0
SEQEND
  5
679
  8
FINAL_PROJECT_CHASSIS_2_V1
  0
POLYLINE
  5
131
  8
FINAL_PROJECT_CHASSIS_2_V1
 66
     1
 10
0.0
 20
0.0
 30
0.0
  0
VERTEX
  5
453
  8
FINAL_PROJECT_CHASSIS_2_V1
 10
125.4803
 20
-47.3644
 30
0.0
  0
VERTEX
  5
454
  8
FINAL_PROJECT_CHASSIS_2_V1
 10
125.4803
 20
177.6206
 30
0.0
  0
SEQEND
  5
67A
  8
FINAL_PROJECT_CHASSIS_2_V1
  0
POLYLINE
  5
132
  8
FINAL_PROJECT_CHASSIS_2_V1
 66
     1
 10
0.0
 20
0.0
 30
0.0
  0
VERTEX
  5
455
  8
FINAL_PROJECT_CHASSIS_2_V1
 10
522.0158
 20
1000.6345
 30
0.0
  0
VERTEX
  5
456
  8
FINAL_PROJECT_CHASSIS_2_V1
 10
522.0158
 20
570.6345
 30
0.0
  0
SEQEND
  5
67B
  8
FINAL_PROJECT_CHASSIS_2_V1
  0
POLYLINE
  5
133
  8
FINAL_PROJECT_CHASSIS_2_V1
 66
     1
 10
0.0
 20
0.0
 30
0.0
  0
VERTEX
  5
457
  8
FINAL_PROJECT_CHASSIS_2_V1
 10
207.0158
 20
920.6345
 30
0.0
  0
VERTEX
  5
458
  8
FINAL_PROJECT_CHASSIS_2_V1
 10
205.0388
 20
920.5366
 30
0.0
  0
VERTEX
  5
459
  8
FINAL_PROJECT_CHASSIS_2_V1
 10
203.0954
 20
920.2467
 30
0.0
  0
VERTEX
  5
45A
  8
FINAL_PROJECT_CHASSIS_2_V1
 10
201.1987
 20
919.77
 30
0.0
  0
VERTEX
  5
45B
  8
FINAL_PROJECT_CHASSIS_2_V1
 10
199.3617
 20
919.1121
 30
0.0
  0
VERTEX
  5
45C
  8
FINAL_PROJECT_CHASSIS_2_V1
 10
197.5976
 20
918.2784
 30
0.0
  0
VERTEX
  5
45D
  8
FINAL_PROJECT_CHASSIS_2_V1
 10
195.9195
 20
917.2743
 30
0.0
  0
VERTEX
  5
45E
  8
FINAL_PROJECT_CHASSIS_2_V1
 10
194.3405
 20
916.1052
 30
0.0
  0
VERTEX
  5
45F
  8
FINAL_PROJECT_CHASSIS_2_V1
 10
192.8738
 20
914.7765
 30
0.0
  0
VERTEX
  5
460
  8
FINAL_PROJECT_CHASSIS_2_V1
 10
191.5451
 20
913.3094
 30
0.0
  0
VERTEX
  5
461
  8
FINAL_PROJECT_CHASSIS_2_V1
 10
190.376
 20
911.7302
 30
0.0
  0
VERTEX
  5
462
  8
FINAL_PROJECT_CHASSIS_2_V1
 10
189.3719
 20
910.052
 30
0.0
  0
VERTEX
  5
463
  8
FINAL_PROJECT_CHASSIS_2_V1
 10
188.5382
 20
908.2879
 30
0.0
  0
VERTEX
  5
464
  8
FINAL_PROJECT_CHASSIS_2_V1
 10
187.8803
 20
906.4509
 30
0.0
  0
VERTEX
  5
465
  8
FINAL_PROJECT_CHASSIS_2_V1
 10
187.4036
 20
904.5543
 30
0.0
  0
VERTEX
  5
466
  8
FINAL_PROJECT_CHASSIS_2_V1
 10
187.1137
 20
902.6111
 30
0.0
  0
VERTEX
  5
467
  8
FINAL_PROJECT_CHASSIS_2_V1
 10
187.0158
 20
900.6345
 30
0.0
  0
SEQEND
  5
67C
  8
FINAL_PROJECT_CHASSIS_2_V1
  0
POLYLINE
  5
134
  8
FINAL_PROJECT_CHASSIS_2_V1
 66
     1
 10
0.0
 20
0.0
 30
0.0
  0
VERTEX
  5
468
  8
FINAL_PROJECT_CHASSIS_2_V1
 10
395.4803
 20
282.6206
 30
0.0
  0
VERTEX
  5
469
  8
FINAL_PROJECT_CHASSIS_2_V1
 10
395.3824
 20
284.5976
 30
0.0
  0
VERTEX
  5
46A
  8
FINAL_PROJECT_CHASSIS_2_V1
 10
395.0925
 20
286.541
 30
0.0
  0
VERTEX
  5
46B
  8
FINAL_PROJECT_CHASSIS_2_V1
 10
394.6158
 20
288.4377
 30
0.0
  0
VERTEX
  5
46C
  8
FINAL_PROJECT_CHASSIS_2_V1
 10
393.9579
 20
290.2747
 30
0.0
  0
VERTEX
  5
46D
  8
FINAL_PROJECT_CHASSIS_2_V1
 10
393.1242
 20
292.0388
 30
0.0
  0
VERTEX
  5
46E
  8
FINAL_PROJECT_CHASSIS_2_V1
 10
392.1201
 20
293.7169
 30
0.0
  0
VERTEX
  5
46F
  8
FINAL_PROJECT_CHASSIS_2_V1
 10
390.951
 20
295.2959
 30
0.0
  0
VERTEX
  5
470
  8
FINAL_PROJECT_CHASSIS_2_V1
 10
389.6223
 20
296.7626
 30
0.0
  0
VERTEX
  5
471
  8
FINAL_PROJECT_CHASSIS_2_V1
 10
388.1552
 20
298.0913
 30
0.0
  0
VERTEX
  5
472
  8
FINAL_PROJECT_CHASSIS_2_V1
 10
386.576
 20
299.2604
 30
0.0
  0
VERTEX
  5
473
  8
FINAL_PROJECT_CHASSIS_2_V1
 10
384.8978
 20
300.2645
 30
0.0
  0
VERTEX
  5
474
  8
FINAL_PROJECT_CHASSIS_2_V1
 10
383.1337
 20
301.0982
 30
0.0
  0
VERTEX
  5
475
  8
FINAL_PROJECT_CHASSIS_2_V1
 10
381.2967
 20
301.7561
 30
0.0
  0
VERTEX
  5
476
  8
FINAL_PROJECT_CHASSIS_2_V1
 10
379.4001
 20
302.2328
 30
0.0
  0
VERTEX
  5
477
  8
FINAL_PROJECT_CHASSIS_2_V1
 10
377.4569
 20
302.5227
 30
0.0
  0
VERTEX
  5
478
  8
FINAL_PROJECT_CHASSIS_2_V1
 10
375.4803
 20
302.6206
 30
0.0
  0
SEQEND
  5
67D
  8
FINAL_PROJECT_CHASSIS_2_V1
  0
POLYLINE
  5
135
  8
FINAL_PROJECT_CHASSIS_2_V1
 66
     1
 10
0.0
 20
0.0
 30
0.0
  0
VERTEX
  5
479
  8
FINAL_PROJECT_CHASSIS_2_V1
 10
522.0158
 20
1000.6345
 30
0.0
  0
VERTEX
  5
47A
  8
FINAL_PROJECT_CHASSIS_2_V1
 10
521.9179
 20
1002.6111
 30
0.0
  0
VERTEX
  5
47B
  8
FINAL_PROJECT_CHASSIS_2_V1
 10
521.628
 20
1004.5543
 30
0.0
  0
VERTEX
  5
47C
  8
FINAL_PROJECT_CHASSIS_2_V1
 10
521.1513
 20
1006.4509
 30
0.0
  0
VERTEX
  5
47D
  8
FINAL_PROJECT_CHASSIS_2_V1
 10
520.4934
 20
1008.2879
 30
0.0
  0
VERTEX
  5
47E
  8
FINAL_PROJECT_CHASSIS_2_V1
 10
519.6597
 20
1010.052
 30
0.0
  0
VERTEX
  5
47F
  8
FINAL_PROJECT_CHASSIS_2_V1
 10
518.6556
 20
1011.7302
 30
0.0
  0
VERTEX
  5
480
  8
FINAL_PROJECT_CHASSIS_2_V1
 10
517.4865
 20
1013.3094
 30
0.0
  0
VERTEX
  5
481
  8
FINAL_PROJECT_CHASSIS_2_V1
 10
516.1578
 20
1014.7765
 30
0.0
  0
VERTEX
  5
482
  8
FINAL_PROJECT_CHASSIS_2_V1
 10
514.6907
 20
1016.1052
 30
0.0
  0
VERTEX
  5
483
  8
FINAL_PROJECT_CHASSIS_2_V1
 10
513.1115
 20
1017.2743
 30
0.0
  0
VERTEX
  5
484
  8
FINAL_PROJECT_CHASSIS_2_V1
 10
511.4333
 20
1018.2784
 30
0.0
  0
VERTEX
  5
485
  8
FINAL_PROJECT_CHASSIS_2_V1
 10
509.6692
 20
1019.1121
 30
0.0
  0
VERTEX
  5
486
  8
FINAL_PROJECT_CHASSIS_2_V1
 10
507.8322
 20
1019.77
 30
0.0
  0
VERTEX
  5
487
  8
FINAL_PROJECT_CHASSIS_2_V1
 10
505.9356
 20
1020.2467
 30
0.0
  0
VERTEX
  5
488
  8
FINAL_PROJECT_CHASSIS_2_V1
 10
503.9924
 20
1020.5366
 30
0.0
  0
VERTEX
  5
489
  8
FINAL_PROJECT_CHASSIS_2_V1
 10
502.0158
 20
1020.6345
 30
0.0
  0
SEQEND
  5
67E
  8
FINAL_PROJECT_CHASSIS_2_V1
  0
POLYLINE
  5
136
  8
FINAL_PROJECT_CHASSIS_2_V1
 66
     1
 10
0.0
 20
0.0
 30
0.0
  0
VERTEX
  5
48A
  8
FINAL_PROJECT_CHASSIS_2_V1
 10
475.4803
 20
-47.3794
 30
0.0
  0
VERTEX
  5
48B
  8
FINAL_PROJECT_CHASSIS_2_V1
 10
475.4803
 20
-65.3794
 30
0.0
  0
SEQEND
  5
67F
  8
FINAL_PROJECT_CHASSIS_2_V1
  0
POLYLINE
  5
137
  8
FINAL_PROJECT_CHASSIS_2_V1
 66
     1
 10
0.0
 20
0.0
 30
0.0
  0
VERTEX
  5
48C
  8
FINAL_PROJECT_CHASSIS_2_V1
 10
395.4803
 20
282.6206
 30
0.0
  0
VERTEX
  5
48D
  8
FINAL_PROJECT_CHASSIS_2_V1
 10
395.4803
 20
-47.3794
 30
0.0
  0
SEQEND
  5
680
  8
FINAL_PROJECT_CHASSIS_2_V1
  0
POLYLINE
  5
138
  8
FINAL_PROJECT_CHASSIS_2_V1
 66
     1
 10
0.0
 20
0.0
 30
0.0
  0
VERTEX
  5
48E
  8
FINAL_PROJECT_CHASSIS_2_V1
 10
430.4803
 20
-47.3794
 30
0.0
  0
VERTEX
  5
48F
  8
FINAL_PROJECT_CHASSIS_2_V1
 10
430.4803
 20
-65.3794
 30
0.0
  0
SEQEND
  5
681
  8
FINAL_PROJECT_CHASSIS_2_V1
  0
POLYLINE
  5
139
  8
FINAL_PROJECT_CHASSIS_2_V1
 66
     1
 10
0.0
 20
0.0
 30
0.0
  0
VERTEX
  5
490
  8
FINAL_PROJECT_CHASSIS_2_V1
 10
412.0158
 20
1038.6345
 30
0.0
  0
VERTEX
  5
491
  8
FINAL_PROJECT_CHASSIS_2_V1
 10
412.0158
 20
1020.6345
 30
0.0
  0
SEQEND
  5
682
  8
FINAL_PROJECT_CHASSIS_2_V1
  0
POLYLINE
  5
13A
  8
FINAL_PROJECT_CHASSIS_2_V1
 66
     1
 10
0.0
 20
0.0
 30
0.0
  0
VERTEX
  5
492
  8
FINAL_PROJECT_CHASSIS_2_V1
 10
400.4803
 20
402.6206
 30
0.0
  0
VERTEX
  5
493
  8
FINAL_PROJECT_CHASSIS_2_V1
 10
490.4803
 20
402.6206
 30
0.0
  0
SEQEND
  5
683
  8
FINAL_PROJECT_CHASSIS_2_V1
  0
POLYLINE
  5
13B
  8
FINAL_PROJECT_CHASSIS_2_V1
 66
     1
 10
0.0
 20
0.0
 30
0.0
  0
VERTEX
  5
494
  8
FINAL_PROJECT_CHASSIS_2_V1
 10
460.4803
 20
-65.3794
 30
0.0
  0
VERTEX
  5
495
  8
FINAL_PROJECT_CHASSIS_2_V1
 10
460.4803
 20
-47.4354
 30
0.0
  0
SEQEND
  5
684
  8
FINAL_PROJECT_CHASSIS_2_V1
  0
POLYLINE
  5
13C
  8
FINAL_PROJECT_CHASSIS_2_V1
 66
     1
 10
0.0
 20
0.0
 30
0.0
  0
VERTEX
  5
496
  8
FINAL_PROJECT_CHASSIS_2_V1
 10
-453.1446
 20
-560.7154
 30
0.0
  0
VERTEX
  5
497
  8
FINAL_PROJECT_CHASSIS_2_V1
 10
-438.1446
 20
-560.7154
 30
0.0
  0
SEQEND
  5
685
  8
FINAL_PROJECT_CHASSIS_2_V1
  0
POLYLINE
  5
13D
  8
FINAL_PROJECT_CHASSIS_2_V1
 66
     1
 10
0.0
 20
0.0
 30
0.0
  0
VERTEX
  5
498
  8
FINAL_PROJECT_CHASSIS_2_V1
 10
442.0158
 20
570.6345
 30
0.0
  0
VERTEX
  5
499
  8
FINAL_PROJECT_CHASSIS_2_V1
 10
442.0158
 20
555.6345
 30
0.0
  0
SEQEND
  5
686
  8
FINAL_PROJECT_CHASSIS_2_V1
  0
POLYLINE
  5
13E
  8
FINAL_PROJECT_CHASSIS_2_V1
 66
     1
 10
0.0
 20
0.0
 30
0.0
  0
VERTEX
  5
49A
  8
FINAL_PROJECT_CHASSIS_2_V1
 10
-438.1446
 20
-270.7154
 30
0.0
  0
VERTEX
  5
49B
  8
FINAL_PROJECT_CHASSIS_2_V1
 10
-453.1446
 20
-270.7154
 30
0.0
  0
SEQEND
  5
687
  8
FINAL_PROJECT_CHASSIS_2_V1
  0
POLYLINE
  5
13F
  8
FINAL_PROJECT_CHASSIS_2_V1
 66
     1
 10
0.0
 20
0.0
 30
0.0
  0
VERTEX
  5
49C
  8
FINAL_PROJECT_CHASSIS_2_V1
 10
95.4803
 20
-47.3794
 30
0.0
  0
VERTEX
  5
49D
  8
FINAL_PROJECT_CHASSIS_2_V1
 10
60.4803
 20
-47.3794
 30
0.0
  0
SEQEND
  5
688
  8
FINAL_PROJECT_CHASSIS_2_V1
  0
POLYLINE
  5
140
  8
FINAL_PROJECT_CHASSIS_2_V1
 66
     1
 10
0.0
 20
0.0
 30
0.0
  0
VERTEX
  5
49E
  8
FINAL_PROJECT_CHASSIS_2_V1
 10
110.4803
 20
177.6206
 30
0.0
  0
VERTEX
  5
49F
  8
FINAL_PROJECT_CHASSIS_2_V1
 10
110.4803
 20
-47.3794
 30
0.0
  0
SEQEND
  5
689
  8
FINAL_PROJECT_CHASSIS_2_V1
  0
POLYLINE
  5
141
  8
FINAL_PROJECT_CHASSIS_2_V1
 66
     1
 10
0.0
 20
0.0
 30
0.0
  0
VERTEX
  5
4A0
  8
FINAL_PROJECT_CHASSIS_2_V1
 10
-483.1446
 20
-190.7154
 30
0.0
  0
VERTEX
  5
4A1
  8
FINAL_PROJECT_CHASSIS_2_V1
 10
-485.1216
 20
-190.8133
 30
0.0
  0
VERTEX
  5
4A2
  8
FINAL_PROJECT_CHASSIS_2_V1
 10
-487.065
 20
-191.1032
 30
0.0
  0
VERTEX
  5
4A3
  8
FINAL_PROJECT_CHASSIS_2_V1
 10
-488.9617
 20
-191.5799
 30
0.0
  0
VERTEX
  5
4A4
  8
FINAL_PROJECT_CHASSIS_2_V1
 10
-490.7987
 20
-192.2378
 30
0.0
  0
VERTEX
  5
4A5
  8
FINAL_PROJECT_CHASSIS_2_V1
 10
-492.5628
 20
-193.0715
 30
0.0
  0
VERTEX
  5
4A6
  8
FINAL_PROJECT_CHASSIS_2_V1
 10
-494.2409
 20
-194.0756
 30
0.0
  0
VERTEX
  5
4A7
  8
FINAL_PROJECT_CHASSIS_2_V1
 10
-495.8199
 20
-195.2447
 30
0.0
  0
VERTEX
  5
4A8
  8
FINAL_PROJECT_CHASSIS_2_V1
 10
-497.2866
 20
-196.5734
 30
0.0
  0
VERTEX
  5
4A9
  8
FINAL_PROJECT_CHASSIS_2_V1
 10
-498.6153
 20
-198.0405
 30
0.0
  0
VERTEX
  5
4AA
  8
FINAL_PROJECT_CHASSIS_2_V1
 10
-499.7844
 20
-199.6197
 30
0.0
  0
VERTEX
  5
4AB
  8
FINAL_PROJECT_CHASSIS_2_V1
 10
-500.7885
 20
-201.2979
 30
0.0
  0
VERTEX
  5
4AC
  8
FINAL_PROJECT_CHASSIS_2_V1
 10
-501.6222
 20
-203.062
 30
0.0
  0
VERTEX
  5
4AD
  8
FINAL_PROJECT_CHASSIS_2_V1
 10
-502.2801
 20
-204.899
 30
0.0
  0
VERTEX
  5
4AE
  8
FINAL_PROJECT_CHASSIS_2_V1
 10
-502.7568
 20
-206.7956
 30
0.0
  0
VERTEX
  5
4AF
  8
FINAL_PROJECT_CHASSIS_2_V1
 10
-503.0467
 20
-208.7388
 30
0.0
  0
VERTEX
  5
4B0
  8
FINAL_PROJECT_CHASSIS_2_V1
 10
-503.1446
 20
-210.7154
 30
0.0
  0
SEQEND
  5
68A
  8
FINAL_PROJECT_CHASSIS_2_V1
  0
POLYLINE
  5
142
  8
FINAL_PROJECT_CHASSIS_2_V1
 66
     1
 10
0.0
 20
0.0
 30
0.0
  0
VERTEX
  5
4B1
  8
FINAL_PROJECT_CHASSIS_2_V1
 10
310.4803
 20
402.6206
 30
0.0
  0
VERTEX
  5
4B2
  8
FINAL_PROJECT_CHASSIS_2_V1
 10
310.4803
 20
417.6206
 30
0.0
  0
SEQEND
  5
68B
  8
FINAL_PROJECT_CHASSIS_2_V1
  0
POLYLINE
  5
143
  8
FINAL_PROJECT_CHASSIS_2_V1
 66
     1
 10
0.0
 20
0.0
 30
0.0
  0
VERTEX
  5
4B3
  8
FINAL_PROJECT_CHASSIS_2_V1
 10
152.0158
 20
555.6345
 30
0.0
  0
VERTEX
  5
4B4
  8
FINAL_PROJECT_CHASSIS_2_V1
 10
137.0158
 20
555.6345
 30
0.0
  0
SEQEND
  5
68C
  8
FINAL_PROJECT_CHASSIS_2_V1
  0
POLYLINE
  5
144
  8
FINAL_PROJECT_CHASSIS_2_V1
 66
     1
 10
0.0
 20
0.0
 30
0.0
  0
VERTEX
  5
4B5
  8
FINAL_PROJECT_CHASSIS_2_V1
 10
107.0158
 20
570.6345
 30
0.0
  0
VERTEX
  5
4B6
  8
FINAL_PROJECT_CHASSIS_2_V1
 10
107.0158
 20
555.6345
 30
0.0
  0
SEQEND
  5
68D
  8
FINAL_PROJECT_CHASSIS_2_V1
  0
POLYLINE
  5
145
  8
FINAL_PROJECT_CHASSIS_2_V1
 66
     1
 10
0.0
 20
0.0
 30
0.0
  0
VERTEX
  5
4B7
  8
FINAL_PROJECT_CHASSIS_2_V1
 10
170.4803
 20
417.6206
 30
0.0
  0
VERTEX
  5
4B8
  8
FINAL_PROJECT_CHASSIS_2_V1
 10
260.4803
 20
417.6206
 30
0.0
  0
SEQEND
  5
68E
  8
FINAL_PROJECT_CHASSIS_2_V1
  0
POLYLINE
  5
146
  8
FINAL_PROJECT_CHASSIS_2_V1
 66
     1
 10
0.0
 20
0.0
 30
0.0
  0
VERTEX
  5
4B9
  8
FINAL_PROJECT_CHASSIS_2_V1
 10
140.4803
 20
-65.3794
 30
0.0
  0
VERTEX
  5
4BA
  8
FINAL_PROJECT_CHASSIS_2_V1
 10
125.4803
 20
-65.3794
 30
0.0
  0
SEQEND
  5
68F
  8
FINAL_PROJECT_CHASSIS_2_V1
  0
POLYLINE
  5
147
  8
FINAL_PROJECT_CHASSIS_2_V1
 66
     1
 10
0.0
 20
0.0
 30
0.0
  0
VERTEX
  5
4BB
  8
FINAL_PROJECT_CHASSIS_2_V1
 10
-103.1446
 20
-240.7154
 30
0.0
  0
VERTEX
  5
4BC
  8
FINAL_PROJECT_CHASSIS_2_V1
 10
-118.1446
 20
-240.7154
 30
0.0
  0
SEQEND
  5
690
  8
FINAL_PROJECT_CHASSIS_2_V1
  0
POLYLINE
  5
148
  8
FINAL_PROJECT_CHASSIS_2_V1
 66
     1
 10
0.0
 20
0.0
 30
0.0
  0
VERTEX
  5
4BD
  8
FINAL_PROJECT_CHASSIS_2_V1
 10
-118.1446
 20
-560.7154
 30
0.0
  0
VERTEX
  5
4BE
  8
FINAL_PROJECT_CHASSIS_2_V1
 10
-103.1446
 20
-560.7154
 30
0.0
  0
SEQEND
  5
691
  8
FINAL_PROJECT_CHASSIS_2_V1
  0
POLYLINE
  5
149
  8
FINAL_PROJECT_CHASSIS_2_V1
 66
     1
 10
0.0
 20
0.0
 30
0.0
  0
VERTEX
  5
4BF
  8
FINAL_PROJECT_CHASSIS_2_V1
 10
-253.1446
 20
-240.7154
 30
0.0
  0
VERTEX
  5
4C0
  8
FINAL_PROJECT_CHASSIS_2_V1
 10
-163.1446
 20
-240.7154
 30
0.0
  0
SEQEND
  5
692
  8
FINAL_PROJECT_CHASSIS_2_V1
  0
POLYLINE
  5
14A
  8
FINAL_PROJECT_CHASSIS_2_V1
 66
     1
 10
0.0
 20
0.0
 30
0.0
  0
VERTEX
  5
4C1
  8
FINAL_PROJECT_CHASSIS_2_V1
 10
-118.1446
 20
-605.7154
 30
0.0
  0
VERTEX
  5
4C2
  8
FINAL_PROJECT_CHASSIS_2_V1
 10
-103.1446
 20
-605.7154
 30
0.0
  0
SEQEND
  5
693
  8
FINAL_PROJECT_CHASSIS_2_V1
  0
POLYLINE
  5
14B
  8
FINAL_PROJECT_CHASSIS_2_V1
 66
     1
 10
0.0
 20
0.0
 30
0.0
  0
VERTEX
  5
4C3
  8
FINAL_PROJECT_CHASSIS_2_V1
 10
-73.1446
 20
-640.7154
 30
0.0
  0
VERTEX
  5
4C4
  8
FINAL_PROJECT_CHASSIS_2_V1
 10
-69.1155
 20
-640.3094
 30
0.0
  0
VERTEX
  5
4C5
  8
FINAL_PROJECT_CHASSIS_2_V1
 10
-65.3627
 20
-639.1449
 30
0.0
  0
VERTEX
  5
4C6
  8
FINAL_PROJECT_CHASSIS_2_V1
 10
-61.9663
 20
-637.3023
 30
0.0
  0
VERTEX
  5
4C7
  8
FINAL_PROJECT_CHASSIS_2_V1
 10
-59.0069
 20
-634.8618
 30
0.0
  0
VERTEX
  5
4C8
  8
FINAL_PROJECT_CHASSIS_2_V1
 10
-56.5646
 20
-631.9037
 30
0.0
  0
VERTEX
  5
4C9
  8
FINAL_PROJECT_CHASSIS_2_V1
 10
-54.7199
 20
-628.5084
 30
0.0
  0
VERTEX
  5
4CA
  8
FINAL_PROJECT_CHASSIS_2_V1
 10
-53.5531
 20
-624.7562
 30
0.0
  0
VERTEX
  5
4CB
  8
FINAL_PROJECT_CHASSIS_2_V1
 10
-53.1446
 20
-620.7274
 30
0.0
  0
SEQEND
  5
694
  8
FINAL_PROJECT_CHASSIS_2_V1
  0
POLYLINE
  5
14C
  8
FINAL_PROJECT_CHASSIS_2_V1
 66
     1
 10
0.0
 20
0.0
 30
0.0
  0
VERTEX
  5
4CC
  8
FINAL_PROJECT_CHASSIS_2_V1
 10
-118.1446
 20
-225.7154
 30
0.0
  0
VERTEX
  5
4CD
  8
FINAL_PROJECT_CHASSIS_2_V1
 10
-103.1446
 20
-225.7154
 30
0.0
  0
SEQEND
  5
695
  8
FINAL_PROJECT_CHASSIS_2_V1
  0
POLYLINE
  5
14D
  8
FINAL_PROJECT_CHASSIS_2_V1
 66
     1
 10
0.0
 20
0.0
 30
0.0
  0
VERTEX
  5
4CE
  8
FINAL_PROJECT_CHASSIS_2_V1
 10
-163.1446
 20
-255.7154
 30
0.0
  0
VERTEX
  5
4CF
  8
FINAL_PROJECT_CHASSIS_2_V1
 10
-253.1446
 20
-255.7154
 30
0.0
  0
SEQEND
  5
696
  8
FINAL_PROJECT_CHASSIS_2_V1
  0
POLYLINE
  5
14E
  8
FINAL_PROJECT_CHASSIS_2_V1
 66
     1
 10
0.0
 20
0.0
 30
0.0
  0
VERTEX
  5
4D0
  8
FINAL_PROJECT_CHASSIS_2_V1
 10
-393.1446
 20
-240.7154
 30
0.0
  0
VERTEX
  5
4D1
  8
FINAL_PROJECT_CHASSIS_2_V1
 10
-303.1446
 20
-240.7154
 30
0.0
  0
SEQEND
  5
697
  8
FINAL_PROJECT_CHASSIS_2_V1
  0
POLYLINE
  5
14F
  8
FINAL_PROJECT_CHASSIS_2_V1
 66
     1
 10
0.0
 20
0.0
 30
0.0
  0
VERTEX
  5
4D2
  8
FINAL_PROJECT_CHASSIS_2_V1
 10
112.6604
 20
-562.6896
 30
0.0
  0
VERTEX
  5
4D3
  8
FINAL_PROJECT_CHASSIS_2_V1
 10
112.6604
 20
-577.6896
 30
0.0
  0
SEQEND
  5
698
  8
FINAL_PROJECT_CHASSIS_2_V1
  0
POLYLINE
  5
150
  8
FINAL_PROJECT_CHASSIS_2_V1
 66
     1
 10
0.0
 20
0.0
 30
0.0
  0
VERTEX
  5
4D4
  8
FINAL_PROJECT_CHASSIS_2_V1
 10
-103.1446
 20
-590.7154
 30
0.0
  0
VERTEX
  5
4D5
  8
FINAL_PROJECT_CHASSIS_2_V1
 10
-118.1446
 20
-590.7154
 30
0.0
  0
SEQEND
  5
699
  8
FINAL_PROJECT_CHASSIS_2_V1
  0
POLYLINE
  5
151
  8
FINAL_PROJECT_CHASSIS_2_V1
 66
     1
 10
0.0
 20
0.0
 30
0.0
  0
VERTEX
  5
4D6
  8
FINAL_PROJECT_CHASSIS_2_V1
 10
127.6604
 20
-577.6896
 30
0.0
  0
VERTEX
  5
4D7
  8
FINAL_PROJECT_CHASSIS_2_V1
 10
127.6604
 20
-562.6896
 30
0.0
  0
SEQEND
  5
69A
  8
FINAL_PROJECT_CHASSIS_2_V1
  0
POLYLINE
  5
152
  8
FINAL_PROJECT_CHASSIS_2_V1
 66
     1
 10
0.0
 20
0.0
 30
0.0
  0
VERTEX
  5
4D8
  8
FINAL_PROJECT_CHASSIS_2_V1
 10
-53.1446
 20
-210.7154
 30
0.0
  0
VERTEX
  5
4D9
  8
FINAL_PROJECT_CHASSIS_2_V1
 10
-53.2425
 20
-208.7388
 30
0.0
  0
VERTEX
  5
4DA
  8
FINAL_PROJECT_CHASSIS_2_V1
 10
-53.5324
 20
-206.7956
 30
0.0
  0
VERTEX
  5
4DB
  8
FINAL_PROJECT_CHASSIS_2_V1
 10
-54.0091
 20
-204.899
 30
0.0
  0
VERTEX
  5
4DC
  8
FINAL_PROJECT_CHASSIS_2_V1
 10
-54.667
 20
-203.062
 30
0.0
  0
VERTEX
  5
4DD
  8
FINAL_PROJECT_CHASSIS_2_V1
 10
-55.5007
 20
-201.2979
 30
0.0
  0
VERTEX
  5
4DE
  8
FINAL_PROJECT_CHASSIS_2_V1
 10
-56.5048
 20
-199.6197
 30
0.0
  0
VERTEX
  5
4DF
  8
FINAL_PROJECT_CHASSIS_2_V1
 10
-57.6739
 20
-198.0405
 30
0.0
  0
VERTEX
  5
4E0
  8
FINAL_PROJECT_CHASSIS_2_V1
 10
-59.0026
 20
-196.5734
 30
0.0
  0
VERTEX
  5
4E1
  8
FINAL_PROJECT_CHASSIS_2_V1
 10
-60.4697
 20
-195.2447
 30
0.0
  0
VERTEX
  5
4E2
  8
FINAL_PROJECT_CHASSIS_2_V1
 10
-62.0489
 20
-194.0756
 30
0.0
  0
VERTEX
  5
4E3
  8
FINAL_PROJECT_CHASSIS_2_V1
 10
-63.7271
 20
-193.0715
 30
0.0
  0
VERTEX
  5
4E4
  8
FINAL_PROJECT_CHASSIS_2_V1
 10
-65.4912
 20
-192.2378
 30
0.0
  0
VERTEX
  5
4E5
  8
FINAL_PROJECT_CHASSIS_2_V1
 10
-67.3282
 20
-191.5799
 30
0.0
  0
VERTEX
  5
4E6
  8
FINAL_PROJECT_CHASSIS_2_V1
 10
-69.2248
 20
-191.1032
 30
0.0
  0
VERTEX
  5
4E7
  8
FINAL_PROJECT_CHASSIS_2_V1
 10
-71.168
 20
-190.8133
 30
0.0
  0
VERTEX
  5
4E8
  8
FINAL_PROJECT_CHASSIS_2_V1
 10
-73.1446
 20
-190.7154
 30
0.0
  0
SEQEND
  5
69B
  8
FINAL_PROJECT_CHASSIS_2_V1
  0
POLYLINE
  5
153
  8
FINAL_PROJECT_CHASSIS_2_V1
 66
     1
 10
0.0
 20
0.0
 30
0.0
  0
VERTEX
  5
4E9
  8
FINAL_PROJECT_CHASSIS_2_V1
 10
492.6604
 20
-827.6896
 30
0.0
  0
VERTEX
  5
4EA
  8
FINAL_PROJECT_CHASSIS_2_V1
 10
496.6912
 20
-827.2833
 30
0.0
  0
VERTEX
  5
4EB
  8
FINAL_PROJECT_CHASSIS_2_V1
 10
500.4454
 20
-826.1179
 30
0.0
  0
VERTEX
  5
4EC
  8
FINAL_PROJECT_CHASSIS_2_V1
 10
503.8427
 20
-824.274
 30
0.0
  0
VERTEX
  5
4ED
  8
FINAL_PROJECT_CHASSIS_2_V1
 10
506.8027
 20
-821.8319
 30
0.0
  0
VERTEX
  5
4EE
  8
FINAL_PROJECT_CHASSIS_2_V1
 10
509.2448
 20
-818.8719
 30
0.0
  0
VERTEX
  5
4EF
  8
FINAL_PROJECT_CHASSIS_2_V1
 10
511.0887
 20
-815.4746
 30
0.0
  0
VERTEX
  5
4F0
  8
FINAL_PROJECT_CHASSIS_2_V1
 10
512.2541
 20
-811.7204
 30
0.0
  0
VERTEX
  5
4F1
  8
FINAL_PROJECT_CHASSIS_2_V1
 10
512.6604
 20
-807.6896
 30
0.0
  0
SEQEND
  5
69C
  8
FINAL_PROJECT_CHASSIS_2_V1
  0
POLYLINE
  5
154
  8
FINAL_PROJECT_CHASSIS_2_V1
 66
     1
 10
0.0
 20
0.0
 30
0.0
  0
VERTEX
  5
4F2
  8
FINAL_PROJECT_CHASSIS_2_V1
 10
447.6604
 20
-287.6896
 30
0.0
  0
VERTEX
  5
4F3
  8
FINAL_PROJECT_CHASSIS_2_V1
 10
462.6604
 20
-287.6896
 30
0.0
  0
SEQEND
  5
69D
  8
FINAL_PROJECT_CHASSIS_2_V1
  0
POLYLINE
  5
155
  8
FINAL_PROJECT_CHASSIS_2_V1
 66
     1
 10
0.0
 20
0.0
 30
0.0
  0
VERTEX
  5
4F4
  8
FINAL_PROJECT_CHASSIS_2_V1
 10
62.6604
 20
-197.6896
 30
0.0
  0
VERTEX
  5
4F5
  8
FINAL_PROJECT_CHASSIS_2_V1
 10
62.6604
 20
-807.6896
 30
0.0
  0
SEQEND
  5
69E
  8
FINAL_PROJECT_CHASSIS_2_V1
  0
POLYLINE
  5
156
  8
FINAL_PROJECT_CHASSIS_2_V1
 66
     1
 10
0.0
 20
0.0
 30
0.0
  0
VERTEX
  5
4F6
  8
FINAL_PROJECT_CHASSIS_2_V1
 10
-73.1446
 20
-640.7154
 30
0.0
  0
VERTEX
  5
4F7
  8
FINAL_PROJECT_CHASSIS_2_V1
 10
-483.1446
 20
-640.7154
 30
0.0
  0
SEQEND
  5
69F
  8
FINAL_PROJECT_CHASSIS_2_V1
  0
POLYLINE
  5
157
  8
FINAL_PROJECT_CHASSIS_2_V1
 66
     1
 10
0.0
 20
0.0
 30
0.0
  0
VERTEX
  5
4F8
  8
FINAL_PROJECT_CHASSIS_2_V1
 10
62.6604
 20
-807.6896
 30
0.0
  0
VERTEX
  5
4F9
  8
FINAL_PROJECT_CHASSIS_2_V1
 10
62.7583
 20
-809.6666
 30
0.0
  0
VERTEX
  5
4FA
  8
FINAL_PROJECT_CHASSIS_2_V1
 10
63.0482
 20
-811.61
 30
0.0
  0
VERTEX
  5
4FB
  8
FINAL_PROJECT_CHASSIS_2_V1
 10
63.5249
 20
-813.5067
 30
0.0
  0
VERTEX
  5
4FC
  8
FINAL_PROJECT_CHASSIS_2_V1
 10
64.1828
 20
-815.3437
 30
0.0
  0
VERTEX
  5
4FD
  8
FINAL_PROJECT_CHASSIS_2_V1
 10
65.0165
 20
-817.1078
 30
0.0
  0
VERTEX
  5
4FE
  8
FINAL_PROJECT_CHASSIS_2_V1
 10
66.0206
 20
-818.7859
 30
0.0
  0
VERTEX
  5
4FF
  8
FINAL_PROJECT_CHASSIS_2_V1
 10
67.1897
 20
-820.3649
 30
0.0
  0
VERTEX
  5
500
  8
FINAL_PROJECT_CHASSIS_2_V1
 10
68.5184
 20
-821.8316
 30
0.0
  0
VERTEX
  5
501
  8
FINAL_PROJECT_CHASSIS_2_V1
 10
69.9852
 20
-823.1603
 30
0.0
  0
VERTEX
  5
502
  8
FINAL_PROJECT_CHASSIS_2_V1
 10
71.5642
 20
-824.3294
 30
0.0
  0
VERTEX
  5
503
  8
FINAL_PROJECT_CHASSIS_2_V1
 10
73.2425
 20
-825.3335
 30
0.0
  0
VERTEX
  5
504
  8
FINAL_PROJECT_CHASSIS_2_V1
 10
75.0067
 20
-826.1672
 30
0.0
  0
VERTEX
  5
505
  8
FINAL_PROJECT_CHASSIS_2_V1
 10
76.8437
 20
-826.8251
 30
0.0
  0
VERTEX
  5
506
  8
FINAL_PROJECT_CHASSIS_2_V1
 10
78.7404
 20
-827.3018
 30
0.0
  0
VERTEX
  5
507
  8
FINAL_PROJECT_CHASSIS_2_V1
 10
80.6837
 20
-827.5917
 30
0.0
  0
VERTEX
  5
508
  8
FINAL_PROJECT_CHASSIS_2_V1
 10
82.6604
 20
-827.6896
 30
0.0
  0
SEQEND
  5
6A0
  8
FINAL_PROJECT_CHASSIS_2_V1
  0
POLYLINE
  5
158
  8
FINAL_PROJECT_CHASSIS_2_V1
 66
     1
 10
0.0
 20
0.0
 30
0.0
  0
VERTEX
  5
509
  8
FINAL_PROJECT_CHASSIS_2_V1
 10
127.6604
 20
-427.6896
 30
0.0
  0
VERTEX
  5
50A
  8
FINAL_PROJECT_CHASSIS_2_V1
 10
127.6604
 20
-517.6896
 30
0.0
  0
SEQEND
  5
6A1
  8
FINAL_PROJECT_CHASSIS_2_V1
  0
POLYLINE
  5
159
  8
FINAL_PROJECT_CHASSIS_2_V1
 66
     1
 10
0.0
 20
0.0
 30
0.0
  0
VERTEX
  5
50B
  8
FINAL_PROJECT_CHASSIS_2_V1
 10
-118.1446
 20
-225.7154
 30
0.0
  0
VERTEX
  5
50C
  8
FINAL_PROJECT_CHASSIS_2_V1
 10
-118.1446
 20
-240.7154
 30
0.0
  0
SEQEND
  5
6A2
  8
FINAL_PROJECT_CHASSIS_2_V1
  0
POLYLINE
  5
15A
  8
FINAL_PROJECT_CHASSIS_2_V1
 66
     1
 10
0.0
 20
0.0
 30
0.0
  0
VERTEX
  5
50D
  8
FINAL_PROJECT_CHASSIS_2_V1
 10
-118.1446
 20
-255.7154
 30
0.0
  0
VERTEX
  5
50E
  8
FINAL_PROJECT_CHASSIS_2_V1
 10
-118.1446
 20
-270.7154
 30
0.0
  0
SEQEND
  5
6A3
  8
FINAL_PROJECT_CHASSIS_2_V1
  0
POLYLINE
  5
15B
  8
FINAL_PROJECT_CHASSIS_2_V1
 66
     1
 10
0.0
 20
0.0
 30
0.0
  0
VERTEX
  5
50F
  8
FINAL_PROJECT_CHASSIS_2_V1
 10
127.6604
 20
-562.6896
 30
0.0
  0
VERTEX
  5
510
  8
FINAL_PROJECT_CHASSIS_2_V1
 10
142.6604
 20
-562.6896
 30
0.0
  0
SEQEND
  5
6A4
  8
FINAL_PROJECT_CHASSIS_2_V1
  0
POLYLINE
  5
15C
  8
FINAL_PROJECT_CHASSIS_2_V1
 66
     1
 10
0.0
 20
0.0
 30
0.0
  0
VERTEX
  5
511
  8
FINAL_PROJECT_CHASSIS_2_V1
 10
142.6604
 20
-577.6896
 30
0.0
  0
VERTEX
  5
512
  8
FINAL_PROJECT_CHASSIS_2_V1
 10
127.6604
 20
-577.6896
 30
0.0
  0
SEQEND
  5
6A5
  8
FINAL_PROJECT_CHASSIS_2_V1
  0
POLYLINE
  5
15D
  8
FINAL_PROJECT_CHASSIS_2_V1
 66
     1
 10
0.0
 20
0.0
 30
0.0
  0
VERTEX
  5
513
  8
FINAL_PROJECT_CHASSIS_2_V1
 10
462.6604
 20
-227.6896
 30
0.0
  0
VERTEX
  5
514
  8
FINAL_PROJECT_CHASSIS_2_V1
 10
477.6604
 20
-227.6896
 30
0.0
  0
SEQEND
  5
6A6
  8
FINAL_PROJECT_CHASSIS_2_V1
  0
POLYLINE
  5
15E
  8
FINAL_PROJECT_CHASSIS_2_V1
 66
     1
 10
0.0
 20
0.0
 30
0.0
  0
VERTEX
  5
515
  8
FINAL_PROJECT_CHASSIS_2_V1
 10
447.6604
 20
-562.6896
 30
0.0
  0
VERTEX
  5
516
  8
FINAL_PROJECT_CHASSIS_2_V1
 10
447.6604
 20
-577.6896
 30
0.0
  0
SEQEND
  5
6A7
  8
FINAL_PROJECT_CHASSIS_2_V1
  0
POLYLINE
  5
15F
  8
FINAL_PROJECT_CHASSIS_2_V1
 66
     1
 10
0.0
 20
0.0
 30
0.0
  0
VERTEX
  5
517
  8
FINAL_PROJECT_CHASSIS_2_V1
 10
97.6604
 20
-577.6896
 30
0.0
  0
VERTEX
  5
518
  8
FINAL_PROJECT_CHASSIS_2_V1
 10
97.6604
 20
-562.6896
 30
0.0
  0
SEQEND
  5
6A8
  8
FINAL_PROJECT_CHASSIS_2_V1
  0
POLYLINE
  5
160
  8
FINAL_PROJECT_CHASSIS_2_V1
 66
     1
 10
0.0
 20
0.0
 30
0.0
  0
VERTEX
  5
519
  8
FINAL_PROJECT_CHASSIS_2_V1
 10
142.6604
 20
-562.6896
 30
0.0
  0
VERTEX
  5
51A
  8
FINAL_PROJECT_CHASSIS_2_V1
 10
142.6604
 20
-577.6896
 30
0.0
  0
SEQEND
  5
6A9
  8
FINAL_PROJECT_CHASSIS_2_V1
  0
POLYLINE
  5
161
  8
FINAL_PROJECT_CHASSIS_2_V1
 66
     1
 10
0.0
 20
0.0
 30
0.0
  0
VERTEX
  5
51B
  8
FINAL_PROJECT_CHASSIS_2_V1
 10
127.6604
 20
-242.6896
 30
0.0
  0
VERTEX
  5
51C
  8
FINAL_PROJECT_CHASSIS_2_V1
 10
142.6604
 20
-242.6896
 30
0.0
  0
SEQEND
  5
6AA
  8
FINAL_PROJECT_CHASSIS_2_V1
  0
POLYLINE
  5
162
  8
FINAL_PROJECT_CHASSIS_2_V1
 66
     1
 10
0.0
 20
0.0
 30
0.0
  0
VERTEX
  5
51D
  8
FINAL_PROJECT_CHASSIS_2_V1
 10
447.6604
 20
-242.6896
 30
0.0
  0
VERTEX
  5
51E
  8
FINAL_PROJECT_CHASSIS_2_V1
 10
432.6604
 20
-242.6896
 30
0.0
  0
SEQEND
  5
6AB
  8
FINAL_PROJECT_CHASSIS_2_V1
  0
POLYLINE
  5
163
  8
FINAL_PROJECT_CHASSIS_2_V1
 66
     1
 10
0.0
 20
0.0
 30
0.0
  0
VERTEX
  5
51F
  8
FINAL_PROJECT_CHASSIS_2_V1
 10
462.6604
 20
-377.6896
 30
0.0
  0
VERTEX
  5
520
  8
FINAL_PROJECT_CHASSIS_2_V1
 10
447.6604
 20
-377.6896
 30
0.0
  0
SEQEND
  5
6AC
  8
FINAL_PROJECT_CHASSIS_2_V1
  0
POLYLINE
  5
164
  8
FINAL_PROJECT_CHASSIS_2_V1
 66
     1
 10
0.0
 20
0.0
 30
0.0
  0
VERTEX
  5
521
  8
FINAL_PROJECT_CHASSIS_2_V1
 10
477.6604
 20
-562.6896
 30
0.0
  0
VERTEX
  5
522
  8
FINAL_PROJECT_CHASSIS_2_V1
 10
462.6604
 20
-562.6896
 30
0.0
  0
SEQEND
  5
6AD
  8
FINAL_PROJECT_CHASSIS_2_V1
  0
POLYLINE
  5
165
  8
FINAL_PROJECT_CHASSIS_2_V1
 66
     1
 10
0.0
 20
0.0
 30
0.0
  0
VERTEX
  5
523
  8
FINAL_PROJECT_CHASSIS_2_V1
 10
432.6604
 20
-227.6896
 30
0.0
  0
VERTEX
  5
524
  8
FINAL_PROJECT_CHASSIS_2_V1
 10
447.6604
 20
-227.6896
 30
0.0
  0
SEQEND
  5
6AE
  8
FINAL_PROJECT_CHASSIS_2_V1
  0
POLYLINE
  5
166
  8
FINAL_PROJECT_CHASSIS_2_V1
 66
     1
 10
0.0
 20
0.0
 30
0.0
  0
VERTEX
  5
525
  8
FINAL_PROJECT_CHASSIS_2_V1
 10
477.6604
 20
-577.6896
 30
0.0
  0
VERTEX
  5
526
  8
FINAL_PROJECT_CHASSIS_2_V1
 10
477.6604
 20
-562.6896
 30
0.0
  0
SEQEND
  5
6AF
  8
FINAL_PROJECT_CHASSIS_2_V1
  0
POLYLINE
  5
167
  8
FINAL_PROJECT_CHASSIS_2_V1
 66
     1
 10
0.0
 20
0.0
 30
0.0
  0
VERTEX
  5
527
  8
FINAL_PROJECT_CHASSIS_2_V1
 10
97.6604
 20
-242.6896
 30
0.0
  0
VERTEX
  5
528
  8
FINAL_PROJECT_CHASSIS_2_V1
 10
97.6604
 20
-227.6896
 30
0.0
  0
SEQEND
  5
6B0
  8
FINAL_PROJECT_CHASSIS_2_V1
  0
POLYLINE
  5
168
  8
FINAL_PROJECT_CHASSIS_2_V1
 66
     1
 10
0.0
 20
0.0
 30
0.0
  0
VERTEX
  5
529
  8
FINAL_PROJECT_CHASSIS_2_V1
 10
512.6604
 20
-807.6896
 30
0.0
  0
VERTEX
  5
52A
  8
FINAL_PROJECT_CHASSIS_2_V1
 10
512.6604
 20
-197.6896
 30
0.0
  0
SEQEND
  5
6B1
  8
FINAL_PROJECT_CHASSIS_2_V1
  0
POLYLINE
  5
169
  8
FINAL_PROJECT_CHASSIS_2_V1
 66
     1
 10
0.0
 20
0.0
 30
0.0
  0
VERTEX
  5
52B
  8
FINAL_PROJECT_CHASSIS_2_V1
 10
-483.1446
 20
-190.7154
 30
0.0
  0
VERTEX
  5
52C
  8
FINAL_PROJECT_CHASSIS_2_V1
 10
-73.1446
 20
-190.7154
 30
0.0
  0
SEQEND
  5
6B2
  8
FINAL_PROJECT_CHASSIS_2_V1
  0
POLYLINE
  5
16A
  8
FINAL_PROJECT_CHASSIS_2_V1
 66
     1
 10
0.0
 20
0.0
 30
0.0
  0
VERTEX
  5
52D
  8
FINAL_PROJECT_CHASSIS_2_V1
 10
462.6604
 20
-287.6896
 30
0.0
  0
VERTEX
  5
52E
  8
FINAL_PROJECT_CHASSIS_2_V1
 10
462.6604
 20
-377.6896
 30
0.0
  0
SEQEND
  5
6B3
  8
FINAL_PROJECT_CHASSIS_2_V1
  0
POLYLINE
  5
16B
  8
FINAL_PROJECT_CHASSIS_2_V1
 66
     1
 10
0.0
 20
0.0
 30
0.0
  0
VERTEX
  5
52F
  8
FINAL_PROJECT_CHASSIS_2_V1
 10
97.6604
 20
-562.6896
 30
0.0
  0
VERTEX
  5
530
  8
FINAL_PROJECT_CHASSIS_2_V1
 10
112.6604
 20
-562.6896
 30
0.0
  0
SEQEND
  5
6B4
  8
FINAL_PROJECT_CHASSIS_2_V1
  0
POLYLINE
  5
16C
  8
FINAL_PROJECT_CHASSIS_2_V1
 66
     1
 10
0.0
 20
0.0
 30
0.0
  0
VERTEX
  5
531
  8
FINAL_PROJECT_CHASSIS_2_V1
 10
112.6604
 20
-577.6896
 30
0.0
  0
VERTEX
  5
532
  8
FINAL_PROJECT_CHASSIS_2_V1
 10
97.6604
 20
-577.6896
 30
0.0
  0
SEQEND
  5
6B5
  8
FINAL_PROJECT_CHASSIS_2_V1
  0
POLYLINE
  5
16D
  8
FINAL_PROJECT_CHASSIS_2_V1
 66
     1
 10
0.0
 20
0.0
 30
0.0
  0
VERTEX
  5
533
  8
FINAL_PROJECT_CHASSIS_2_V1
 10
462.6604
 20
-517.6896
 30
0.0
  0
VERTEX
  5
534
  8
FINAL_PROJECT_CHASSIS_2_V1
 10
447.6604
 20
-517.6896
 30
0.0
  0
SEQEND
  5
6B6
  8
FINAL_PROJECT_CHASSIS_2_V1
  0
POLYLINE
  5
16E
  8
FINAL_PROJECT_CHASSIS_2_V1
 66
     1
 10
0.0
 20
0.0
 30
0.0
  0
VERTEX
  5
535
  8
FINAL_PROJECT_CHASSIS_2_V1
 10
447.6604
 20
-577.6896
 30
0.0
  0
VERTEX
  5
536
  8
FINAL_PROJECT_CHASSIS_2_V1
 10
432.6604
 20
-577.6896
 30
0.0
  0
SEQEND
  5
6B7
  8
FINAL_PROJECT_CHASSIS_2_V1
  0
POLYLINE
  5
16F
  8
FINAL_PROJECT_CHASSIS_2_V1
 66
     1
 10
0.0
 20
0.0
 30
0.0
  0
VERTEX
  5
537
  8
FINAL_PROJECT_CHASSIS_2_V1
 10
112.6604
 20
-227.6896
 30
0.0
  0
VERTEX
  5
538
  8
FINAL_PROJECT_CHASSIS_2_V1
 10
112.6604
 20
-242.6896
 30
0.0
  0
SEQEND
  5
6B8
  8
FINAL_PROJECT_CHASSIS_2_V1
  0
POLYLINE
  5
170
  8
FINAL_PROJECT_CHASSIS_2_V1
 66
     1
 10
0.0
 20
0.0
 30
0.0
  0
VERTEX
  5
539
  8
FINAL_PROJECT_CHASSIS_2_V1
 10
462.6604
 20
-562.6896
 30
0.0
  0
VERTEX
  5
53A
  8
FINAL_PROJECT_CHASSIS_2_V1
 10
462.6604
 20
-577.6896
 30
0.0
  0
SEQEND
  5
6B9
  8
FINAL_PROJECT_CHASSIS_2_V1
  0
POLYLINE
  5
171
  8
FINAL_PROJECT_CHASSIS_2_V1
 66
     1
 10
0.0
 20
0.0
 30
0.0
  0
VERTEX
  5
53B
  8
FINAL_PROJECT_CHASSIS_2_V1
 10
432.6604
 20
-577.6896
 30
0.0
  0
VERTEX
  5
53C
  8
FINAL_PROJECT_CHASSIS_2_V1
 10
432.6604
 20
-562.6896
 30
0.0
  0
SEQEND
  5
6BA
  8
FINAL_PROJECT_CHASSIS_2_V1
  0
POLYLINE
  5
172
  8
FINAL_PROJECT_CHASSIS_2_V1
 66
     1
 10
0.0
 20
0.0
 30
0.0
  0
VERTEX
  5
53D
  8
FINAL_PROJECT_CHASSIS_2_V1
 10
462.6604
 20
-427.6896
 30
0.0
  0
VERTEX
  5
53E
  8
FINAL_PROJECT_CHASSIS_2_V1
 10
462.6604
 20
-517.6896
 30
0.0
  0
SEQEND
  5
6BB
  8
FINAL_PROJECT_CHASSIS_2_V1
  0
POLYLINE
  5
173
  8
FINAL_PROJECT_CHASSIS_2_V1
 66
     1
 10
0.0
 20
0.0
 30
0.0
  0
VERTEX
  5
53F
  8
FINAL_PROJECT_CHASSIS_2_V1
 10
447.6604
 20
-227.6896
 30
0.0
  0
VERTEX
  5
540
  8
FINAL_PROJECT_CHASSIS_2_V1
 10
447.6604
 20
-242.6896
 30
0.0
  0
SEQEND
  5
6BC
  8
FINAL_PROJECT_CHASSIS_2_V1
  0
POLYLINE
  5
174
  8
FINAL_PROJECT_CHASSIS_2_V1
 66
     1
 10
0.0
 20
0.0
 30
0.0
  0
VERTEX
  5
541
  8
FINAL_PROJECT_CHASSIS_2_V1
 10
82.6604
 20
-177.6896
 30
0.0
  0
VERTEX
  5
542
  8
FINAL_PROJECT_CHASSIS_2_V1
 10
80.6837
 20
-177.7875
 30
0.0
  0
VERTEX
  5
543
  8
FINAL_PROJECT_CHASSIS_2_V1
 10
78.7404
 20
-178.0774
 30
0.0
  0
VERTEX
  5
544
  8
FINAL_PROJECT_CHASSIS_2_V1
 10
76.8437
 20
-178.5541
 30
0.0
  0
VERTEX
  5
545
  8
FINAL_PROJECT_CHASSIS_2_V1
 10
75.0067
 20
-179.212
 30
0.0
  0
VERTEX
  5
546
  8
FINAL_PROJECT_CHASSIS_2_V1
 10
73.2425
 20
-180.0457
 30
0.0
  0
VERTEX
  5
547
  8
FINAL_PROJECT_CHASSIS_2_V1
 10
71.5642
 20
-181.0498
 30
0.0
  0
VERTEX
  5
548
  8
FINAL_PROJECT_CHASSIS_2_V1
 10
69.9852
 20
-182.2189
 30
0.0
  0
VERTEX
  5
549
  8
FINAL_PROJECT_CHASSIS_2_V1
 10
68.5184
 20
-183.5476
 30
0.0
  0
VERTEX
  5
54A
  8
FINAL_PROJECT_CHASSIS_2_V1
 10
67.1897
 20
-185.0147
 30
0.0
  0
VERTEX
  5
54B
  8
FINAL_PROJECT_CHASSIS_2_V1
 10
66.0206
 20
-186.5939
 30
0.0
  0
VERTEX
  5
54C
  8
FINAL_PROJECT_CHASSIS_2_V1
 10
65.0165
 20
-188.2721
 30
0.0
  0
VERTEX
  5
54D
  8
FINAL_PROJECT_CHASSIS_2_V1
 10
64.1828
 20
-190.0362
 30
0.0
  0
VERTEX
  5
54E
  8
FINAL_PROJECT_CHASSIS_2_V1
 10
63.5249
 20
-191.8732
 30
0.0
  0
VERTEX
  5
54F
  8
FINAL_PROJECT_CHASSIS_2_V1
 10
63.0482
 20
-193.7698
 30
0.0
  0
VERTEX
  5
550
  8
FINAL_PROJECT_CHASSIS_2_V1
 10
62.7583
 20
-195.713
 30
0.0
  0
VERTEX
  5
551
  8
FINAL_PROJECT_CHASSIS_2_V1
 10
62.6604
 20
-197.6896
 30
0.0
  0
SEQEND
  5
6BD
  8
FINAL_PROJECT_CHASSIS_2_V1
  0
POLYLINE
  5
175
  8
FINAL_PROJECT_CHASSIS_2_V1
 66
     1
 10
0.0
 20
0.0
 30
0.0
  0
VERTEX
  5
552
  8
FINAL_PROJECT_CHASSIS_2_V1
 10
82.6604
 20
-827.6896
 30
0.0
  0
VERTEX
  5
553
  8
FINAL_PROJECT_CHASSIS_2_V1
 10
492.6604
 20
-827.6896
 30
0.0
  0
SEQEND
  5
6BE
  8
FINAL_PROJECT_CHASSIS_2_V1
  0
POLYLINE
  5
176
  8
FINAL_PROJECT_CHASSIS_2_V1
 66
     1
 10
0.0
 20
0.0
 30
0.0
  0
VERTEX
  5
554
  8
FINAL_PROJECT_CHASSIS_2_V1
 10
112.6604
 20
-377.6896
 30
0.0
  0
VERTEX
  5
555
  8
FINAL_PROJECT_CHASSIS_2_V1
 10
127.6604
 20
-377.6896
 30
0.0
  0
SEQEND
  5
6BF
  8
FINAL_PROJECT_CHASSIS_2_V1
  0
POLYLINE
  5
177
  8
FINAL_PROJECT_CHASSIS_2_V1
 66
     1
 10
0.0
 20
0.0
 30
0.0
  0
VERTEX
  5
556
  8
FINAL_PROJECT_CHASSIS_2_V1
 10
477.6604
 20
-242.6896
 30
0.0
  0
VERTEX
  5
557
  8
FINAL_PROJECT_CHASSIS_2_V1
 10
477.6604
 20
-227.6896
 30
0.0
  0
SEQEND
  5
6C0
  8
FINAL_PROJECT_CHASSIS_2_V1
  0
POLYLINE
  5
178
  8
FINAL_PROJECT_CHASSIS_2_V1
 66
     1
 10
0.0
 20
0.0
 30
0.0
  0
VERTEX
  5
558
  8
FINAL_PROJECT_CHASSIS_2_V1
 10
97.6604
 20
-242.6896
 30
0.0
  0
VERTEX
  5
559
  8
FINAL_PROJECT_CHASSIS_2_V1
 10
112.6604
 20
-242.6896
 30
0.0
  0
SEQEND
  5
6C1
  8
FINAL_PROJECT_CHASSIS_2_V1
  0
POLYLINE
  5
179
  8
FINAL_PROJECT_CHASSIS_2_V1
 66
     1
 10
0.0
 20
0.0
 30
0.0
  0
VERTEX
  5
55A
  8
FINAL_PROJECT_CHASSIS_2_V1
 10
447.6604
 20
-427.6896
 30
0.0
  0
VERTEX
  5
55B
  8
FINAL_PROJECT_CHASSIS_2_V1
 10
462.6604
 20
-427.6896
 30
0.0
  0
SEQEND
  5
6C2
  8
FINAL_PROJECT_CHASSIS_2_V1
  0
POLYLINE
  5
17A
  8
FINAL_PROJECT_CHASSIS_2_V1
 66
     1
 10
0.0
 20
0.0
 30
0.0
  0
VERTEX
  5
55C
  8
FINAL_PROJECT_CHASSIS_2_V1
 10
-103.1446
 20
-225.7154
 30
0.0
  0
VERTEX
  5
55D
  8
FINAL_PROJECT_CHASSIS_2_V1
 10
-103.1446
 20
-240.7154
 30
0.0
  0
SEQEND
  5
6C3
  8
FINAL_PROJECT_CHASSIS_2_V1
  0
POLYLINE
  5
17B
  8
FINAL_PROJECT_CHASSIS_2_V1
 66
     1
 10
0.0
 20
0.0
 30
0.0
  0
VERTEX
  5
55E
  8
FINAL_PROJECT_CHASSIS_2_V1
 10
432.6604
 20
-242.6896
 30
0.0
  0
VERTEX
  5
55F
  8
FINAL_PROJECT_CHASSIS_2_V1
 10
432.6604
 20
-227.6896
 30
0.0
  0
SEQEND
  5
6C4
  8
FINAL_PROJECT_CHASSIS_2_V1
  0
POLYLINE
  5
17C
  8
FINAL_PROJECT_CHASSIS_2_V1
 66
     1
 10
0.0
 20
0.0
 30
0.0
  0
VERTEX
  5
560
  8
FINAL_PROJECT_CHASSIS_2_V1
 10
-103.1446
 20
-255.7154
 30
0.0
  0
VERTEX
  5
561
  8
FINAL_PROJECT_CHASSIS_2_V1
 10
-103.1446
 20
-270.7154
 30
0.0
  0
SEQEND
  5
6C5
  8
FINAL_PROJECT_CHASSIS_2_V1
  0
POLYLINE
  5
17D
  8
FINAL_PROJECT_CHASSIS_2_V1
 66
     1
 10
0.0
 20
0.0
 30
0.0
  0
VERTEX
  5
562
  8
FINAL_PROJECT_CHASSIS_2_V1
 10
447.6604
 20
-517.6896
 30
0.0
  0
VERTEX
  5
563
  8
FINAL_PROJECT_CHASSIS_2_V1
 10
447.6604
 20
-427.6896
 30
0.0
  0
SEQEND
  5
6C6
  8
FINAL_PROJECT_CHASSIS_2_V1
  0
POLYLINE
  5
17E
  8
FINAL_PROJECT_CHASSIS_2_V1
 66
     1
 10
0.0
 20
0.0
 30
0.0
  0
VERTEX
  5
564
  8
FINAL_PROJECT_CHASSIS_2_V1
 10
127.6604
 20
-287.6896
 30
0.0
  0
VERTEX
  5
565
  8
FINAL_PROJECT_CHASSIS_2_V1
 10
127.6604
 20
-377.6896
 30
0.0
  0
SEQEND
  5
6C7
  8
FINAL_PROJECT_CHASSIS_2_V1
  0
POLYLINE
  5
17F
  8
FINAL_PROJECT_CHASSIS_2_V1
 66
     1
 10
0.0
 20
0.0
 30
0.0
  0
VERTEX
  5
566
  8
FINAL_PROJECT_CHASSIS_2_V1
 10
97.6604
 20
-227.6896
 30
0.0
  0
VERTEX
  5
567
  8
FINAL_PROJECT_CHASSIS_2_V1
 10
112.6604
 20
-227.6896
 30
0.0
  0
SEQEND
  5
6C8
  8
FINAL_PROJECT_CHASSIS_2_V1
  0
POLYLINE
  5
180
  8
FINAL_PROJECT_CHASSIS_2_V1
 66
     1
 10
0.0
 20
0.0
 30
0.0
  0
VERTEX
  5
568
  8
FINAL_PROJECT_CHASSIS_2_V1
 10
112.6604
 20
-287.6896
 30
0.0
  0
VERTEX
  5
569
  8
FINAL_PROJECT_CHASSIS_2_V1
 10
127.6604
 20
-287.6896
 30
0.0
  0
SEQEND
  5
6C9
  8
FINAL_PROJECT_CHASSIS_2_V1
  0
POLYLINE
  5
181
  8
FINAL_PROJECT_CHASSIS_2_V1
 66
     1
 10
0.0
 20
0.0
 30
0.0
  0
VERTEX
  5
56A
  8
FINAL_PROJECT_CHASSIS_2_V1
 10
127.6604
 20
-227.6896
 30
0.0
  0
VERTEX
  5
56B
  8
FINAL_PROJECT_CHASSIS_2_V1
 10
142.6604
 20
-227.6896
 30
0.0
  0
SEQEND
  5
6CA
  8
FINAL_PROJECT_CHASSIS_2_V1
  0
POLYLINE
  5
182
  8
FINAL_PROJECT_CHASSIS_2_V1
 66
     1
 10
0.0
 20
0.0
 30
0.0
  0
VERTEX
  5
56C
  8
FINAL_PROJECT_CHASSIS_2_V1
 10
127.6604
 20
-517.6896
 30
0.0
  0
VERTEX
  5
56D
  8
FINAL_PROJECT_CHASSIS_2_V1
 10
112.6604
 20
-517.6896
 30
0.0
  0
SEQEND
  5
6CB
  8
FINAL_PROJECT_CHASSIS_2_V1
  0
POLYLINE
  5
183
  8
FINAL_PROJECT_CHASSIS_2_V1
 66
     1
 10
0.0
 20
0.0
 30
0.0
  0
VERTEX
  5
56E
  8
FINAL_PROJECT_CHASSIS_2_V1
 10
127.6604
 20
-242.6896
 30
0.0
  0
VERTEX
  5
56F
  8
FINAL_PROJECT_CHASSIS_2_V1
 10
127.6604
 20
-227.6896
 30
0.0
  0
SEQEND
  5
6CC
  8
FINAL_PROJECT_CHASSIS_2_V1
  0
POLYLINE
  5
184
  8
FINAL_PROJECT_CHASSIS_2_V1
 66
     1
 10
0.0
 20
0.0
 30
0.0
  0
VERTEX
  5
570
  8
FINAL_PROJECT_CHASSIS_2_V1
 10
142.6604
 20
-227.6896
 30
0.0
  0
VERTEX
  5
571
  8
FINAL_PROJECT_CHASSIS_2_V1
 10
142.6604
 20
-242.6896
 30
0.0
  0
SEQEND
  5
6CD
  8
FINAL_PROJECT_CHASSIS_2_V1
  0
POLYLINE
  5
185
  8
FINAL_PROJECT_CHASSIS_2_V1
 66
     1
 10
0.0
 20
0.0
 30
0.0
  0
VERTEX
  5
572
  8
FINAL_PROJECT_CHASSIS_2_V1
 10
112.6604
 20
-427.6896
 30
0.0
  0
VERTEX
  5
573
  8
FINAL_PROJECT_CHASSIS_2_V1
 10
127.6604
 20
-427.6896
 30
0.0
  0
SEQEND
  5
6CE
  8
FINAL_PROJECT_CHASSIS_2_V1
  0
POLYLINE
  5
186
  8
FINAL_PROJECT_CHASSIS_2_V1
 66
     1
 10
0.0
 20
0.0
 30
0.0
  0
VERTEX
  5
574
  8
FINAL_PROJECT_CHASSIS_2_V1
 10
512.6604
 20
-197.6896
 30
0.0
  0
VERTEX
  5
575
  8
FINAL_PROJECT_CHASSIS_2_V1
 10
512.2544
 20
-193.6605
 30
0.0
  0
VERTEX
  5
576
  8
FINAL_PROJECT_CHASSIS_2_V1
 10
511.0899
 20
-189.9077
 30
0.0
  0
VERTEX
  5
577
  8
FINAL_PROJECT_CHASSIS_2_V1
 10
509.2473
 20
-186.5113
 30
0.0
  0
VERTEX
  5
578
  8
FINAL_PROJECT_CHASSIS_2_V1
 10
506.8068
 20
-183.5519
 30
0.0
  0
VERTEX
  5
579
  8
FINAL_PROJECT_CHASSIS_2_V1
 10
503.8487
 20
-181.1096
 30
0.0
  0
VERTEX
  5
57A
  8
FINAL_PROJECT_CHASSIS_2_V1
 10
500.4534
 20
-179.2649
 30
0.0
  0
VERTEX
  5
57B
  8
FINAL_PROJECT_CHASSIS_2_V1
 10
496.7012
 20
-178.0981
 30
0.0
  0
VERTEX
  5
57C
  8
FINAL_PROJECT_CHASSIS_2_V1
 10
492.6724
 20
-177.6896
 30
0.0
  0
SEQEND
  5
6CF
  8
FINAL_PROJECT_CHASSIS_2_V1
  0
POLYLINE
  5
187
  8
FINAL_PROJECT_CHASSIS_2_V1
 66
     1
 10
0.0
 20
0.0
 30
0.0
  0
VERTEX
  5
57D
  8
FINAL_PROJECT_CHASSIS_2_V1
 10
447.6604
 20
-377.6896
 30
0.0
  0
VERTEX
  5
57E
  8
FINAL_PROJECT_CHASSIS_2_V1
 10
447.6604
 20
-287.6896
 30
0.0
  0
SEQEND
  5
6D0
  8
FINAL_PROJECT_CHASSIS_2_V1
  0
POLYLINE
  5
188
  8
FINAL_PROJECT_CHASSIS_2_V1
 66
     1
 10
0.0
 20
0.0
 30
0.0
  0
VERTEX
  5
57F
  8
FINAL_PROJECT_CHASSIS_2_V1
 10
112.6604
 20
-517.6896
 30
0.0
  0
VERTEX
  5
580
  8
FINAL_PROJECT_CHASSIS_2_V1
 10
112.6604
 20
-427.6896
 30
0.0
  0
SEQEND
  5
6D1
  8
FINAL_PROJECT_CHASSIS_2_V1
  0
POLYLINE
  5
189
  8
FINAL_PROJECT_CHASSIS_2_V1
 66
     1
 10
0.0
 20
0.0
 30
0.0
  0
VERTEX
  5
581
  8
FINAL_PROJECT_CHASSIS_2_V1
 10
112.6604
 20
-377.6896
 30
0.0
  0
VERTEX
  5
582
  8
FINAL_PROJECT_CHASSIS_2_V1
 10
112.6604
 20
-287.6896
 30
0.0
  0
SEQEND
  5
6D2
  8
FINAL_PROJECT_CHASSIS_2_V1
  0
POLYLINE
  5
18A
  8
FINAL_PROJECT_CHASSIS_2_V1
 66
     1
 10
0.0
 20
0.0
 30
0.0
  0
VERTEX
  5
583
  8
FINAL_PROJECT_CHASSIS_2_V1
 10
477.6604
 20
-242.6896
 30
0.0
  0
VERTEX
  5
584
  8
FINAL_PROJECT_CHASSIS_2_V1
 10
462.6604
 20
-242.6896
 30
0.0
  0
SEQEND
  5
6D3
  8
FINAL_PROJECT_CHASSIS_2_V1
  0
POLYLINE
  5
18B
  8
FINAL_PROJECT_CHASSIS_2_V1
 66
     1
 10
0.0
 20
0.0
 30
0.0
  0
VERTEX
  5
585
  8
FINAL_PROJECT_CHASSIS_2_V1
 10
432.6604
 20
-562.6896
 30
0.0
  0
VERTEX
  5
586
  8
FINAL_PROJECT_CHASSIS_2_V1
 10
447.6604
 20
-562.6896
 30
0.0
  0
SEQEND
  5
6D4
  8
FINAL_PROJECT_CHASSIS_2_V1
  0
POLYLINE
  5
18C
  8
FINAL_PROJECT_CHASSIS_2_V1
 66
     1
 10
0.0
 20
0.0
 30
0.0
  0
VERTEX
  5
587
  8
FINAL_PROJECT_CHASSIS_2_V1
 10
492.6724
 20
-177.6896
 30
0.0
  0
VERTEX
  5
588
  8
FINAL_PROJECT_CHASSIS_2_V1
 10
82.6604
 20
-177.6896
 30
0.0
  0
SEQEND
  5
6D5
  8
FINAL_PROJECT_CHASSIS_2_V1
  0
POLYLINE
  5
18D
  8
FINAL_PROJECT_CHASSIS_2_V1
 66
     1
 10
0.0
 20
0.0
 30
0.0
  0
VERTEX
  5
589
  8
FINAL_PROJECT_CHASSIS_2_V1
 10
462.6604
 20
-227.6896
 30
0.0
  0
VERTEX
  5
58A
  8
FINAL_PROJECT_CHASSIS_2_V1
 10
462.6604
 20
-242.6896
 30
0.0
  0
SEQEND
  5
6D6
  8
FINAL_PROJECT_CHASSIS_2_V1
  0
POLYLINE
  5
18E
  8
FINAL_PROJECT_CHASSIS_2_V1
 66
     1
 10
0.0
 20
0.0
 30
0.0
  0
VERTEX
  5
58B
  8
FINAL_PROJECT_CHASSIS_2_V1
 10
462.6604
 20
-577.6896
 30
0.0
  0
VERTEX
  5
58C
  8
FINAL_PROJECT_CHASSIS_2_V1
 10
477.6604
 20
-577.6896
 30
0.0
  0
SEQEND
  5
6D7
  8
FINAL_PROJECT_CHASSIS_2_V1
  0
POLYLINE
  5
18F
  8
FINAL_PROJECT_CHASSIS_2_V1
 66
     1
 10
0.0
 20
0.0
 30
0.0
  0
VERTEX
  5
58D
  8
FINAL_PROJECT_CHASSIS_2_V1
 10
-438.1446
 20
-560.7154
 30
0.0
  0
VERTEX
  5
58E
  8
FINAL_PROJECT_CHASSIS_2_V1
 10
-438.1446
 20
-575.7154
 30
0.0
  0
SEQEND
  5
6D8
  8
FINAL_PROJECT_CHASSIS_2_V1
  0
POLYLINE
  5
190
  8
FINAL_PROJECT_CHASSIS_2_V1
 66
     1
 10
0.0
 20
0.0
 30
0.0
  0
VERTEX
  5
58F
  8
FINAL_PROJECT_CHASSIS_2_V1
 10
-303.1446
 20
-575.7154
 30
0.0
  0
VERTEX
  5
590
  8
FINAL_PROJECT_CHASSIS_2_V1
 10
-303.1446
 20
-590.7154
 30
0.0
  0
SEQEND
  5
6D9
  8
FINAL_PROJECT_CHASSIS_2_V1
  0
POLYLINE
  5
191
  8
FINAL_PROJECT_CHASSIS_2_V1
 66
     1
 10
0.0
 20
0.0
 30
0.0
  0
VERTEX
  5
591
  8
FINAL_PROJECT_CHASSIS_2_V1
 10
-453.1446
 20
-590.7154
 30
0.0
  0
VERTEX
  5
592
  8
FINAL_PROJECT_CHASSIS_2_V1
 10
-453.1446
 20
-605.7154
 30
0.0
  0
SEQEND
  5
6DA
  8
FINAL_PROJECT_CHASSIS_2_V1
  0
POLYLINE
  5
192
  8
FINAL_PROJECT_CHASSIS_2_V1
 66
     1
 10
0.0
 20
0.0
 30
0.0
  0
VERTEX
  5
593
  8
FINAL_PROJECT_CHASSIS_2_V1
 10
-438.1446
 20
-255.7154
 30
0.0
  0
VERTEX
  5
594
  8
FINAL_PROJECT_CHASSIS_2_V1
 10
-438.1446
 20
-270.7154
 30
0.0
  0
SEQEND
  5
6DB
  8
FINAL_PROJECT_CHASSIS_2_V1
  0
POLYLINE
  5
193
  8
FINAL_PROJECT_CHASSIS_2_V1
 66
     1
 10
0.0
 20
0.0
 30
0.0
  0
VERTEX
  5
595
  8
FINAL_PROJECT_CHASSIS_2_V1
 10
-103.1446
 20
-590.7154
 30
0.0
  0
VERTEX
  5
596
  8
FINAL_PROJECT_CHASSIS_2_V1
 10
-103.1446
 20
-605.7154
 30
0.0
  0
SEQEND
  5
6DC
  8
FINAL_PROJECT_CHASSIS_2_V1
  0
POLYLINE
  5
194
  8
FINAL_PROJECT_CHASSIS_2_V1
 66
     1
 10
0.0
 20
0.0
 30
0.0
  0
VERTEX
  5
597
  8
FINAL_PROJECT_CHASSIS_2_V1
 10
-453.1446
 20
-560.7154
 30
0.0
  0
VERTEX
  5
598
  8
FINAL_PROJECT_CHASSIS_2_V1
 10
-453.1446
 20
-575.7154
 30
0.0
  0
SEQEND
  5
6DD
  8
FINAL_PROJECT_CHASSIS_2_V1
  0
POLYLINE
  5
195
  8
FINAL_PROJECT_CHASSIS_2_V1
 66
     1
 10
0.0
 20
0.0
 30
0.0
  0
VERTEX
  5
599
  8
FINAL_PROJECT_CHASSIS_2_V1
 10
-453.1446
 20
-225.7154
 30
0.0
  0
VERTEX
  5
59A
  8
FINAL_PROJECT_CHASSIS_2_V1
 10
-453.1446
 20
-240.7154
 30
0.0
  0
SEQEND
  5
6DE
  8
FINAL_PROJECT_CHASSIS_2_V1
  0
POLYLINE
  5
196
  8
FINAL_PROJECT_CHASSIS_2_V1
 66
     1
 10
0.0
 20
0.0
 30
0.0
  0
VERTEX
  5
59B
  8
FINAL_PROJECT_CHASSIS_2_V1
 10
-253.1446
 20
-240.7154
 30
0.0
  0
VERTEX
  5
59C
  8
FINAL_PROJECT_CHASSIS_2_V1
 10
-253.1446
 20
-255.7154
 30
0.0
  0
SEQEND
  5
6DF
  8
FINAL_PROJECT_CHASSIS_2_V1
  0
POLYLINE
  5
197
  8
FINAL_PROJECT_CHASSIS_2_V1
 66
     1
 10
0.0
 20
0.0
 30
0.0
  0
VERTEX
  5
59D
  8
FINAL_PROJECT_CHASSIS_2_V1
 10
-393.1446
 20
-240.7154
 30
0.0
  0
VERTEX
  5
59E
  8
FINAL_PROJECT_CHASSIS_2_V1
 10
-393.1446
 20
-255.7154
 30
0.0
  0
SEQEND
  5
6E0
  8
FINAL_PROJECT_CHASSIS_2_V1
  0
POLYLINE
  5
198
  8
FINAL_PROJECT_CHASSIS_2_V1
 66
     1
 10
0.0
 20
0.0
 30
0.0
  0
VERTEX
  5
59F
  8
FINAL_PROJECT_CHASSIS_2_V1
 10
-163.1446
 20
-575.7154
 30
0.0
  0
VERTEX
  5
5A0
  8
FINAL_PROJECT_CHASSIS_2_V1
 10
-163.1446
 20
-590.7154
 30
0.0
  0
SEQEND
  5
6E1
  8
FINAL_PROJECT_CHASSIS_2_V1
  0
POLYLINE
  5
199
  8
FINAL_PROJECT_CHASSIS_2_V1
 66
     1
 10
0.0
 20
0.0
 30
0.0
  0
VERTEX
  5
5A1
  8
FINAL_PROJECT_CHASSIS_2_V1
 10
-118.1446
 20
-590.7154
 30
0.0
  0
VERTEX
  5
5A2
  8
FINAL_PROJECT_CHASSIS_2_V1
 10
-118.1446
 20
-605.7154
 30
0.0
  0
SEQEND
  5
6E2
  8
FINAL_PROJECT_CHASSIS_2_V1
  0
POLYLINE
  5
19A
  8
FINAL_PROJECT_CHASSIS_2_V1
 66
     1
 10
0.0
 20
0.0
 30
0.0
  0
VERTEX
  5
5A3
  8
FINAL_PROJECT_CHASSIS_2_V1
 10
-118.1446
 20
-560.7154
 30
0.0
  0
VERTEX
  5
5A4
  8
FINAL_PROJECT_CHASSIS_2_V1
 10
-118.1446
 20
-575.7154
 30
0.0
  0
SEQEND
  5
6E3
  8
FINAL_PROJECT_CHASSIS_2_V1
  0
POLYLINE
  5
19B
  8
FINAL_PROJECT_CHASSIS_2_V1
 66
     1
 10
0.0
 20
0.0
 30
0.0
  0
VERTEX
  5
5A5
  8
FINAL_PROJECT_CHASSIS_2_V1
 10
-453.1446
 20
-255.7154
 30
0.0
  0
VERTEX
  5
5A6
  8
FINAL_PROJECT_CHASSIS_2_V1
 10
-453.1446
 20
-270.7154
 30
0.0
  0
SEQEND
  5
6E4
  8
FINAL_PROJECT_CHASSIS_2_V1
  0
POLYLINE
  5
19C
  8
FINAL_PROJECT_CHASSIS_2_V1
 66
     1
 10
0.0
 20
0.0
 30
0.0
  0
VERTEX
  5
5A7
  8
FINAL_PROJECT_CHASSIS_2_V1
 10
-303.1446
 20
-240.7154
 30
0.0
  0
VERTEX
  5
5A8
  8
FINAL_PROJECT_CHASSIS_2_V1
 10
-303.1446
 20
-255.7154
 30
0.0
  0
SEQEND
  5
6E5
  8
FINAL_PROJECT_CHASSIS_2_V1
  0
POLYLINE
  5
19D
  8
FINAL_PROJECT_CHASSIS_2_V1
 66
     1
 10
0.0
 20
0.0
 30
0.0
  0
VERTEX
  5
5A9
  8
FINAL_PROJECT_CHASSIS_2_V1
 10
-503.1446
 20
-210.7154
 30
0.0
  0
VERTEX
  5
5AA
  8
FINAL_PROJECT_CHASSIS_2_V1
 10
-503.1446
 20
-620.7154
 30
0.0
  0
SEQEND
  5
6E6
  8
FINAL_PROJECT_CHASSIS_2_V1
  0
POLYLINE
  5
19E
  8
FINAL_PROJECT_CHASSIS_2_V1
 66
     1
 10
0.0
 20
0.0
 30
0.0
  0
VERTEX
  5
5AB
  8
FINAL_PROJECT_CHASSIS_2_V1
 10
-53.1446
 20
-210.7154
 30
0.0
  0
VERTEX
  5
5AC
  8
FINAL_PROJECT_CHASSIS_2_V1
 10
-53.1446
 20
-620.7274
 30
0.0
  0
SEQEND
  5
6E7
  8
FINAL_PROJECT_CHASSIS_2_V1
  0
POLYLINE
  5
19F
  8
FINAL_PROJECT_CHASSIS_2_V1
 66
     1
 10
0.0
 20
0.0
 30
0.0
  0
VERTEX
  5
5AD
  8
FINAL_PROJECT_CHASSIS_2_V1
 10
-163.1446
 20
-240.7154
 30
0.0
  0
VERTEX
  5
5AE
  8
FINAL_PROJECT_CHASSIS_2_V1
 10
-163.1446
 20
-255.7154
 30
0.0
  0
SEQEND
  5
6E8
  8
FINAL_PROJECT_CHASSIS_2_V1
  0
POLYLINE
  5
1A0
  8
FINAL_PROJECT_CHASSIS_2_V1
 66
     1
 10
0.0
 20
0.0
 30
0.0
  0
VERTEX
  5
5AF
  8
FINAL_PROJECT_CHASSIS_2_V1
 10
-253.1446
 20
-575.7154
 30
0.0
  0
VERTEX
  5
5B0
  8
FINAL_PROJECT_CHASSIS_2_V1
 10
-253.1446
 20
-590.7154
 30
0.0
  0
SEQEND
  5
6E9
  8
FINAL_PROJECT_CHASSIS_2_V1
  0
POLYLINE
  5
1A1
  8
FINAL_PROJECT_CHASSIS_2_V1
 66
     1
 10
0.0
 20
0.0
 30
0.0
  0
VERTEX
  5
5B1
  8
FINAL_PROJECT_CHASSIS_2_V1
 10
-438.1446
 20
-590.7154
 30
0.0
  0
VERTEX
  5
5B2
  8
FINAL_PROJECT_CHASSIS_2_V1
 10
-438.1446
 20
-605.7154
 30
0.0
  0
SEQEND
  5
6EA
  8
FINAL_PROJECT_CHASSIS_2_V1
  0
POLYLINE
  5
1A2
  8
FINAL_PROJECT_CHASSIS_2_V1
 66
     1
 10
0.0
 20
0.0
 30
0.0
  0
VERTEX
  5
5B3
  8
FINAL_PROJECT_CHASSIS_2_V1
 10
-103.1446
 20
-560.7154
 30
0.0
  0
VERTEX
  5
5B4
  8
FINAL_PROJECT_CHASSIS_2_V1
 10
-103.1446
 20
-575.7154
 30
0.0
  0
SEQEND
  5
6EB
  8
FINAL_PROJECT_CHASSIS_2_V1
  0
POLYLINE
  5
1A3
  8
FINAL_PROJECT_CHASSIS_2_V1
 66
     1
 10
0.0
 20
0.0
 30
0.0
  0
VERTEX
  5
5B5
  8
FINAL_PROJECT_CHASSIS_2_V1
 10
-438.1446
 20
-225.7154
 30
0.0
  0
VERTEX
  5
5B6
  8
FINAL_PROJECT_CHASSIS_2_V1
 10
-438.1446
 20
-240.7154
 30
0.0
  0
SEQEND
  5
6EC
  8
FINAL_PROJECT_CHASSIS_2_V1
  0
POLYLINE
  5
1A4
  8
FINAL_PROJECT_CHASSIS_2_V1
 66
     1
 10
0.0
 20
0.0
 30
0.0
  0
VERTEX
  5
5B7
  8
FINAL_PROJECT_CHASSIS_2_V1
 10
-393.1446
 20
-575.7154
 30
0.0
  0
VERTEX
  5
5B8
  8
FINAL_PROJECT_CHASSIS_2_V1
 10
-393.1446
 20
-590.7154
 30
0.0
  0
SEQEND
  5
6ED
  8
FINAL_PROJECT_CHASSIS_2_V1
  0
ENDSEC
  0
EOF
